B Side Guitar tabs


You are not connected. Please login or register

View previous topic View next topic Go down  Message [Page 1 of 1]

1 B Side Guitar tabs on Mon 09 Mar 2009, 04:57

CrowX


Administrator
DEHUMANIZED

PM.= Palm Mute
* = Harmonic
S = Slide
Tuning: Drop d 1/2 step (C# G# C# F# A# D# or Db Ab Db Gb Bb Eb)


Intro/Verse
D#|--------------------------------------------------------
A#|--------------------------------------------------------
F#|--------------------------------------------------------
C#|--------------------------------------------------------
G#|----5--------5--------5-------5-------------------------
C#|0000-000-8888-888-2222-222-7777-777---------------------
PM.... ... .... ... .... ... .... ... 4x
D#|--------------------------------------------------------
A#|--------------------------------------------------------
F#|--------------------------------------------------------
C#|--------------------------------------------------------
G#|----5--------5--------5--------5-6----------------------
C#|0000-000-8888-888-2222-222-7777-------------------------
PM.... ... .... ... .... ... ....

Pre-Chorus
D#|----------------------------------------------------------
A#|---4--------------4------------4---------------4-4-4-4-4--
F#|---3--------5*----3------------3---------------3-3-3-3-3--
C#|000-00-00--5*--000-00-00-00-000-00-00--5*---000--2-2-2-2--
G#|000-00-00-5*---000-00-00-00-000-00-00-5*-5*-000-----------
C#|000-00-00------000-00-00-00-000-00-00-------000-----------
PM... .. .. ... .. .. .. ... .. .. ...

Chorus
D#|----------------------------------------------------------2x
A#|----------------------------------------------------------
F#|-----------------------------5~---------------------------
C#|0-xxx-0-0000-33xx-333x-3-333-5~--5/8xx-888x-8-888---------
G#|0-xxx-0-0000-33xx-333x-3-333-3~--5/8xx-888x-8-888---------
C#|0-xxx-0-0000-33xx-333x-3-333-----5/8xx-888x-8-888---------

D#|----------------------------------------------------------
A#|----------------------------------------------------------
F#|----------------------------------------------------------
C#|000-000-000-000-------------------------------------------
G#|000-000-000-000-------------------------------------------
C#|000-000-000-000-------------------------------------------
PM... ... ... ...

Bridge
D#|------------------------------------------------------- 2x
A#|-------------------------------------------------------
F#|-------3322--------------------------------------------
C#|3-5-1111111-3-5-1-3-5555555----------------------------
G#|3-5-1111111-3-5-1-3-5555555----------------------------
C#|3-5-1111111-3-5-1-3-5555555----------------------------



[You must be registered and logged in to see this image.]


CrowX
Administrator
View user profile

2 Re: B Side Guitar tabs on Mon 09 Mar 2009, 05:00

CrowX


Administrator
FORSAKEN

intro
E|------------------20-21~~---23-24/----------|
B|-14~~~~----14-------------------------------|
G|------18-------17~~~~~~~~-------------------|
D|--------------------------------------------|
A|--------------------------------------------|
D|--------------------------------------------|

verse (bass) 3x
E|-------------------------||------------------------------------------------------|
B|-------------------------||------------------------------------------------------|
G|-------------------------||------------------------------------------------------|
D|-------------------------||------------------------------------------------------|
A|-------------------------||------------------------------------------------------|
D|-2-2--222-2---2-2--222-2-||-2-2--222-2----3-3--333-3----5-5--555-5----7-7--777-0-|
pm . . ... . . . ... . . . ... . . . ... . . . . . . . . ... .

verse (guitar) 3x
E|---------------------------------------------|
B|---------------------------------------------|
G|---------------------------------------------|
D|-9/-7/---5/-7/------9/-7/---5/-3/-2/0-2-/----|
A|---------------------------------------------|
D|-9/-7/---5/-7/------9/-7/---5/-3/-2/0-2-/----|

pre-chorus (bass) 2x
E|--------------------------------------------|
B|--------------------------------------------|
G|--------------------------------------------|
D|--------------------------------------------|
A|--------------------------------------------|
D|-22222222/-33333333/-66666666/-7777/-9999/--|

pre-chorus (guitar) 8x
E|----19----19----19---20-------|
B|------17----17----17----17----|
G|------------------------------|
D|------------------------------|
A|------------------------------|
D|------------------------------|

chorus 2x
E|10-1010-101010-1010-101010-1010-101010-----------||-------|
B|-x--x-x--x-x-x--x-x--x-x-x--x-x--x-x-x-----------||----5^-|
G|-7--7-7--7-7-7--7-7--7-7-7--7-7--7-7-7--7-7-7-7^-||-------|
D|-0--0-0--0-0-8--8-8--8-8-7--7-7--7-7-5--5-5-5-5--||--2----|
A|-0--0-0--0-0-8--8-8--8-8-7--7-7--7-7-5--5-5-5-5--||--2----|
D|-0--0-0--0-0-8--8-8--8-8-7--7-7--7-7-5--5-5-5-5--||--2----|

verse (bass) 2x 2x
E|-------------------------||------------------------------------------------------|
B|-------------------------||------------------------------------------------------|
G|-------------------------||------------------------------------------------------|
D|-------------------------||------------------------------------------------------|
A|-------------------------||------------------------------------------------------|
D|-2-2--222-2---2-2--222-2-||-2-2--222-2----3-3--333-3----5-5--555-5----7-7--777-0-|
pm . . ... . . . ... . . . ... . . . ... . . . . . . . . ... .

verse (guitar) 2x
E|---------------------------------------------|
B|---------------------------------------------|
G|---------------------------------------------|
D|-9/-7/---5/-7/------9/-7/---5/-3/-2/0-2-/----|
A|---------------------------------------------|
D|-9/-7/---5/-7/------9/-7/---5/-3/-2/0-2-/----|

pre-chorus (bass) 2x
E|--------------------------------------------|
B|--------------------------------------------|
G|--------------------------------------------|
D|--------------------------------------------|
A|--------------------------------------------|
D|-22222222/-33333333/-66666666/-7777/-9999/--|

pre-chorus (guitar) 8x
E|----19----19----19---20-------|
B|------17----17----17----17----|
G|------------------------------|
D|------------------------------|
A|------------------------------|
D|------------------------------|

chorus 2x
E|10-1010-101010-1010-101010-1010-101010-----------||-------|
B|-x--x-x--x-x-x--x-x--x-x-x--x-x--x-x-x-----------||----5^-|
G|-7--7-7--7-7-7--7-7--7-7-7--7-7--7-7-7--7-7-7-7^-||-------|
D|-0--0-0--0-0-8--8-8--8-8-7--7-7--7-7-5--5-5-5-5--||--2----|
A|-0--0-0--0-0-8--8-8--8-8-7--7-7--7-7-5--5-5-5-5--||--2----|
D|-0--0-0--0-0-8--8-8--8-8-7--7-7--7-7-5--5-5-5-5--||--2----|

bridge 2x
E|------------22-24-----|
B|------22--------------|
G|---21----19-----------|
D|----------------------|
A|----------------------|
D|----------------------|

chorus 4x
E|10-1010-101010-1010-101010-1010-101010-----------||-------|
B|-x--x-x--x-x-x--x-x--x-x-x--x-x--x-x-x-----------||-------|
G|-7--7-7--7-7-7--7-7--7-7-7--7-7--7-7-7--7-7-7-7^-||-------|
D|-0--0-0--0-0-8--8-8--8-8-7--7-7--7-7-5--5-5-5-5--||--0----|
A|-0--0-0--0-0-8--8-8--8-8-7--7-7--7-7-5--5-5-5-5--||--0----|
D|-0--0-0--0-0-8--8-8--8-8-7--7-7--7-7-5--5-5-5-5--||--0----|

chorus(guitar 2)
E|---------------|
B|---------------|
G|---------------|
D|-12~~----12~~--|
A|---------------|
D|---------------|

E|-----------------------------------------------|
B|--15^---13---11-10---8--10---13^--11-10-8-10---|
G|-----------------------------------------------|
D|-----------------------------------------------|
A|-----------------------------------------------|
D|-----------------------------------------------|

E|-----------------------------------------------|
B|----17^--15/13-11-10-8-10-13-11-10-----8---8/3-|
G|-----------------------------------------------|
D|-----------------------------------------------|
A|-----------------------------------------------|
D|-----------------------------------------------|



[You must be registered and logged in to see this image.]


CrowX
Administrator
View user profile

3 Re: B Side Guitar tabs on Mon 09 Mar 2009, 05:03

CrowX


Administrator
HELL


Tuning:- Drop Db (DbAbDbGbBbEb)

Intro

Hell
Disturbed
Stricken (single)

Tuning Drop Db (DbAbDbGbBbEb)

Intro

Eb|------------------------|------------------------|
Bb|------------------------|------------------------|
Gb|------------------------|------------------------|
Db|-5-6-7-------7-7---5-8-7|-5-8-7-------7-7---7-8-7|
Ab|-3-6-5-0-0-0-5-5-0-3-6-5|-3-6-5-0-0-0-5-5---5-6-5|
Db|-------0-0-0-----0------|-------0-0-0-----0------|
x x x x x x x x

Eb|-------------------------|---------------------------------|
Bb|-------------------------|---------------------------------|
Gb|-------------------------|---------------------------------|
Db|-7-10-9-------9-9---8----|-10----10-----10-----12-----12-12|
Ab|-5--8-7-0-0-0-7-7-0-7-0-0|--8-0-0-8-0-0--8-0-0-10-0-0-10-10|
Db|--------0-0-0-----0---0-0|----0-0---0-0----0-0----0-0------|
x x x x x x x x x x x x x x

Eb|---|
Bb|---|
Gb|---|
Db|---|
Ab|-0-|
Db|-0-|



[You must be registered and logged in to see this image.]


CrowX
Administrator
View user profile

4 Re: B Side Guitar tabs on Mon 09 Mar 2009, 05:05

CrowX


Administrator
SICKENED

Drop C tuning

e-----------------------|
B-----------------------|
G-----------------------|
D-----------------------|
A-----------------------|
C-2-3-2-0-2-3-2-2-0-3-5-|

e-----------------------|
B-----------------------|
G-----------------------|
D-----------------------|
A-----------------------|
C-2-3-2-0-2-3-2-2-0-5-3-|

e------------------------|
B------------------------|
G------------------------|
D-2-3-2-0-2-3-2----------|
A-2-3-2-0-2-3-2----------|
C-2-3-2-0-2-3-2--2-0-3-5-|

e--------------------------|
B--------------------------|
G--------------------------|
D-2-3-2-0-2-------2-3--3-2-|
A-2-3-2-0-2-0-0-0-2-3--3-2-|
C-2-3-2-0-2-0-0-0-2-3--3-2-|
PM . . .



[You must be registered and logged in to see this image.]


CrowX
Administrator
View user profile

5 Re: B Side Guitar tabs on Mon 09 Mar 2009, 05:06

CrowX


Administrator
TWO WORLDS

Intro
Guitar 1
e------------------------------------------------------------|
B------------------------------------------------------------|
G------------------------------------------------------------|
D------------------------------------------------------------|
A-5-3-5--5-3-5--5-3-6--5-3-6-----5-3-5--5-3-5--5-3-6--5-3-6--|
D----------------------------5-5-----------------------------|

Guitar 2:It fades in aswell.
e------------------------------------------------------------|
B------------------------------------------------------------|
G--------------------------------7-5-7--7-5-7--7-5-8--7-5-8--|
D------------------------------------------------------------|
A------------------------------------------------------------|
D------------------------------------------------------------|

Intro 2
e------------------------------------------|
B------------------------------------------|
G------------------------------------------|
D-3-3-3-3-5-5-5-5-3-3-3-3-6-6-6-6-3-3-3-3--|
A-3-3-3-3-5-5-5-5-3-3-3-3-6-6-6-6-3-3-3-3--|
D-3-3-3-3-5-5-5-5-3-3-3-3-6-6-6-6-3-3-3-3--|

e------------------------------------|
B------------------------------------|
G------------------------------------| X2
D-7/5\7--7/5\7-0-0-7/5\8--7/5\8-0-0--|
A-5/3\5--5/3\5-0-0-5/3\6--5/3\6-0-0--|
D--------------0-0--------------0-0--|
P.M. . . . .

e------------------------------------------|
B------------------------------------------|
G------------------------------------------|
D-3-3-3-3-5-5-5-5-3-3-3-3-6-6-6-6-3-3-3-3--|
A-3-3-3-3-5-5-5-5-3-3-3-3-6-6-6-6-3-3-3-3--|
D-3-3-3-3-5-5-5-5-3-3-3-3-6-6-6-6-3-3-3-3--|


Verse
Guitar 1
e-------------------------------------------------|
B-------------------------------------------------|
G-------------------------------------------------| X2
D-3--3--3--3--5--5--5--5--3--3--3--3--6--6--6--6--|
A-3--3--3--3--5--5--5--5--3--3--3--3--6--6--6--6--|
D-3--3--3--3--5--5--5--5--3--3--3--3--6--6--6--6--|

Guitar 2
e-------------------------------------------------|
B-------------------------------------------------|
G------7----------7----------7---------7----------|
D-5----------5----------5----------5--------------|
A-------------------------------------------------|
D-------------------------------------------------|

Pre-Chorus
e-------------------------------------------------------|
B-------------------------------------------------------|
G-------------------------------------------------------|
D-5------3-----3-5-3-6-3-33-3-5-3-6-3-33-3-5-3-6-3-55---|
A-5------3-----3-5-3-6-3-33-3-5-3-6-3-33-3-5-3-6-3-33---|
D-5------3-----3-5-3-6-3-33-3-5-3-6-3-33-3-5-3-6-3------|

Chorus:Play this four times total.(A+B+A+B+A+B+A+C)
~A~ ~B~ ~C~
e------------------------|----------------------|-----------|
B------------------------|----------------------|-----------|
G------------------------|----------------------|-----------|
D-3--5--3--3--3-3-3-3-00-|-3--5--3--3-3-3-3-00--|-5-666666--|
A-3--5--3--3--3-3-3-3-00-|-3--5--3--3-3-3-3-00--|-5-666666--|
D-3--5--3--3--3-3-3-3-00-|-3--5--3--3-3-3-3-00--|-5-666666--|
P.M. .. ..

e------------|
B------------|
G------------|
D-0~~~~~~~~--|
A-0~~~~~~~~--|
D-0~~~~~~~~--|

~PLAY VERSE~

~PLAY PRE-CHORUS~

~PLAY CHORUS~

Solo:Need help with it, who wants to? I'll get it up soon.

Here's the Guitar 2 for it though:Repeat as needed.
e-----------------------------|
B-----------------------------|
G---7-7----5-5----7-7----5-5--|
D-5------3------5------3------|
A-----------------------------|
D-----------------------------|

Breakdown:Play like four times?
e------------------------------------|
B------------------------------------|
G------------------------------------|
D-----7-7-----5-5-----7-7-----5-5----|
A------------------------------------|
D-565-----565-----565-----565--------|

e-----------------|
B-----------------|
G-----------------|
D-5------3--------|
A-5------3--------|
D-5------3--------|

~PLAY CHORUS TWICE~



[You must be registered and logged in to see this image.]


CrowX
Administrator
View user profile

6 Re: B Side Guitar tabs on Mon 09 Mar 2009, 05:08

CrowX


Administrator
MONSTER

Drop C# (or Db) - Db Ab Db Gb Bb Eb

This is an awsome unreleased song of disturbed. For corrections...well...leave a comment.



Intro
|--------------------------------------|
|--------------------------------------|
|--------8xx5-x7-7-------8xx5----------|
|--0--0xx8xx5-x7-7-0--0xx8xx5-xx5p3-0--|
|--0--0xx6xx3-x5-5-0--0xx6xx3-xx5p3-0--|
|--0--0xx----------0--0xx-----xx5p3-0--|
PM .

|---------------------------------|
|---------------------------------|
|-----8xx5-x7-7-------8xx5--------|
|--0xx8xx5-x7-7-0--0xx8xx5----5*--|
|--0xx6xx3-x5-5-0--0xx6xx3--5*----|
|--0xx----------0--0xx------------|
Pm . ^ Pinch Harmonics

|-----------------------------------|
|-----------------------------------|
|-----8xx5-x7-7-------8xx5----------|
|--0xx8xx5-x7-7-0--0xx8xx5-xx5p3-0--|
|--0xx6xx3-x5-5-0--0xx6xx3-xx5p3-0--|
|--0xx----------0--0xx-----xx5p3-0--|
PM .

|-------------------------------|
|-------------------------------|
|-----8xx5-x7-7-------8xx5------|
|--0xx8xx5-x7-7-0--0xx8xx5------|
|--0xx6xx3-x5-5-0--0xx6xx3------|
|--0xx----------0--0xx------000-|
PM . ...




Verse
|------------------------------------------------|
|------------------------------------------------|
|--------5--------7--------5---------------------|
|--7-5-7----7-5-7----7-5-7----7-5-7--------------|
|-----------------------------------5--xx3-x6x3--|
|------------------------------------------------|


|------------------------------------------------|
|------------------------------------------------|
|--------5--------7--------5---------------------|
|--7-5-7----7-5-7----7-5-7----7-5-7----------x3--|
|-----------------------------------5--xx3-x6----|
|------------------------------------------------|


|------------------------------------------------|
|------------------------------------------------|
|--------5--------7--------5---------------------|
|--7-5-7----7-5-7----7-5-7----7-5-7--------------|
|-----------------------------------5--xx3-x6x3--|
|------------------------------------------------|


|------------------------------------------------|
|------------------------------------------------|
|--------5--------7--------5---------------------|
|--7-5-7----7-5-7----7-5-7----7-5-7----------x3--|
|-----------------------------------5--xx3-x6----|
|------------------------------------------------|




Pre-Chorus
|----------------------------------|
|----------------------------------|
|----------------------------------|
|-000-xx111-xx000-xx333------------|
|-000-xx111-xx000-xx333---1--3--5--|
|-000-xx111-xx000-xx333---1xx3xx5--|




Chorus
|--------------------------------------|
|--------------------------------------|
|--------8xx5-x7-7-------8xx5----------|
|--0--0xx8xx5-x7-7-0--0xx8xx5-xx5p3-0--|
|--0--0xx6xx3-x5-5-0--0xx6xx3-xx5p3-0--|
|--0--0xx----------0--0xx-----xx5p3-0--|
PM .

|---------------------------------|
|---------------------------------|
|-----8xx5-x7-7-------8xx5--------|
|--0xx8xx5-x7-7-0--0xx8xx5----5*--|
|--0xx6xx3-x5-5-0--0xx6xx3--5*----|
|--0xx----------0--0xx------------|
Pm . ^ Pinch Harmonics

|-----------------------------------|
|-----------------------------------|
|-----8xx5-x7-7-------8xx5----------|
|--0xx8xx5-x7-7-0--0xx8xx5-xx5p3-0--|
|--0xx6xx3-x5-5-0--0xx6xx3-xx5p3-0--|
|--0xx----------0--0xx-----xx5p3-0--|
PM .

|-------------------------------|
|-------------------------------|
|-----8xx5-x7-7-------8xx5------|
|--0xx8xx5-x7-7-0--0xx8xx5------|
|--0xx6xx3-x5-5-0--0xx6xx3------|
|--0xx----------0--0xx------000-|
PM . ...




Verse




Pre-Chorus




Chorus




Interlude
|------------------------------|
|------------------------------|
|------------------------------|
|------------------------------|
|-----5-6p5-6p5-6p5-6p5--------|
|--00--0---0---0---0---0--3-5--|
PM .. . . . .

|-------------------------------|
|-------------------------------|
|-------------------------------|
|-------------------------------|
|-----5-6p5-6p5-6p5-6h8------8--|
|--00--0---0---0---0---0--10----|
PM .. . . . .

|------------------------------|
|------------------------------|
|------------------------------|
|------------------------------|
|-----5-6p5-6p5-6p5-6p5--------|
|--00--0---0---0---0---0--3-5--|
PM .. . . . .

|---------------------------|
|---------------------------|
|---------------------------|
|---------------------------|
|-----5-6p5-6p5---333-55-1--|
|--00--0---0---5--333-55-1--|
PM .. . . . .

|-------------------------|
|-------------------------|
|----8\7-8\7-8\7-8\7------|
|--0-8\7-8\7-8\7-8\7--3-5-|
|--0-6\5-6\5-6\5-6\5--3-5-|
|--0------------------3-5-|
PM .

|-----------------------------|
|-----------------------------|
|----8\7-8\7-8\7-8/10-----10--|
|--0-8\7-8\7-8\7-8/10--10x10--|
|--0-6\5-6\5-6\5-6/8---10x8---|
|--0-------------------10x----|
PM .

|-------------------------|
|-------------------------|
|----8\7-8\7-8\7-8\7------|
|--0-8\7-8\7-8\7-8\7--3-5-|
|--0-6\5-6\5-6\5-6\5--3-5-|
|--0------------------3-5-|
PM .

|------------------------|
|------------------------|
|----8\7-8\7-------------|
|--0-8\7-8\7-5-333-55-1--|
|--0-6\5-6\5-5-333-55-1--|
|--0---------5-333-55-1--|
PM .

|-------------------------|
|-------------------------|
|----8\7-8\7-8\7-8\7------|
|--0-8\7-8\7-8\7-8\7--3-5-|
|--0-6\5-6\5-6\5-6\5--3-5-|
|--0------------------3-5-|
PM .

|-----------------------------|
|-----------------------------|
|----8\7-8\7-8\7-8/10-----10--|
|--0-8\7-8\7-8\7-8/10--10x10--|
|--0-6\5-6\5-6\5-6/8---10x8---|
|--0-------------------10x----|
PM .

|-------------------------|
|-------------------------|
|----8\7-8\7-8\7-8\7------|
|--0-8\7-8\7-8\7-8\7--3-5-|
|--0-6\5-6\5-6\5-6\5--3-5-|
|--0------------------3-5-|
PM .

|------------------------|
|------------------------|
|----8\7-8\7-------------|
|--0-8\7-8\7-5-333-55-1--|
|--0-6\5-6\5-5-333-55-1--|
|--0---------5-333-55-1--|
Pm .


Solo (Guitar 1)
(You can figure by yourself where are the hammers and the pull off)
|----------------------------------------------------|
|----------------------------------------------------|
|-10-12-10----14-10----12-10----15----14----12----10-|
|---------12-------12-------12----12----12----12-----|
|----------------------------------------------------|
|----------------------------------------------------|


|-----------------------------------------------|
|-----------------------------------------------|
|--14----12----10----12----10-9-----------------|
|-----12----12----12----12------12-<>10b--8-5-8-|
|-----------------------------------------------|
|-----------------------------------------------|


|---------------------------------|----------13------13-13b----13----|
|---------------------------------|-----/15-----13b------------------|
|---------------------------------|----------------------------------|
|--10b------12--12--10-8-10-12-8--|--L-------------------------------|
|---------------------------------|----------------------------------|
|---------------------------------|----------------------------------|


|--------------------------------------|
|--------------------------------------|
|--0-15-14-0-7-10-0-5-7-0-7-10-0-5-7-0-|
|--------------------------------------|
|--------------------------------------|
|--------------------------------------|


|-------------------------------------------|--------------------------------|
|---------------------------15-13---15---13-|--11----------------------------|
|--7-0-10-0-15-14-0-17-15-0-------0----0----|----------12----12-12-15-17-----|
|-------------------------------------------|----------------------------15--|
|-------------------------------------------|--------------------------------|
|-------------------------------------------|--------------------------------|


|-------13------13----10-13b--12p-10p-8-10h-12h-13-----------------------|
|--/15-----13b-----13------------------------------13p-10h-12-12h-13h-14-|
|------------------------------------------------------------------------|
|------------------------------------------------------------------------|
|------------------------------------------------------------------------|
|------------------------------------------------------------------------|


Solo (Guitar 2)
|------------------------------------|
|------------------------------------|
|------------------------------------|
|--55555500000000007777778888888888--|
|--55555500000000007777778888888888--|
|--55555500000000007777778888888888--|


|-------------------------------------|
|-------------------------------------|
|-------------------------------------|
|--5555550000000000777777888-3-3-3-3--|
|--5555550000000000777777888-3-3-3-3--|
|--5555550000000000777777888-3-3-3-3--|


|------------------------------------|
|------------------------------------|
|------------------------------------|
|--55555500000000007777778888888888--|
|--55555500000000007777778888888888--|
|--55555500000000007777778888888888--|

|----------------------------------|
|----------------------------------|
|----------------------------------|
|--111111111111111555555555555555--|
|--111111111111111555555555555555--|
|--111111111111111555555555555555--|
^theses are 1's




Final Chorus
|---------------------------------------|
|---------------------------------------|
|---------------------------------------|
|--0--0xx1xx1-x3-x3p0--0xx1xx1-xx5p3-0--|
|--0--0xx1xx1-x3-x3p0--0xx1xx1-xx5p3-0--|
|--0--0xx1xx1-x3-x3p0--0xx1xx1-xx5p3-0--|


|-------------------------------------|
|-------------------------------------|
|-------------------------------------|
|--0--0xx1xx1-x3-x3p0--0xx1xx1--------|
|--0--0xx1xx1-x3-x3p0--0xx1xx1--------|
|--0--0xx1xx1-x3-x3p0--0xx1xx1--0000--|
PM ....

|---------------------------------------|
|---------------------------------------|
|---------------------------------------|
|--0--0xx1xx1-x3-x3p0--0xx1xx1-xx5p3-0--|
|--0--0xx1xx1-x3-x3p0--0xx1xx1-xx5p3-0--|
|--0--0xx1xx1-x3-x3p0--0xx1xx1-xx5p3-0--|


|-------------------------------------|
|-------------------------------------|
|-------------------------------------|
|--0--0xx1xx1-x3-x3p0--0xx1xx1--------|
|--0--0xx1xx1-x3-x3p0--0xx1xx1--------|
|--0--0xx1xx1-x3-x3p0--0xx1xx1--0000--|
PM ....




Outro
|---------------------------------|
|---------------------------------|
|---------------------------------|
|--3p0-3p0-xx1p0-1p0--------------|
|--3p0-3p0-xx1p0-1p0--------------|
|--3p0-3p0-xx1p0-1p0-0-0-0-0-0-0--|


|---------------------------|
|---------------------------|
|---------------------5xx8--|
|--3p0-3p0-xx1p0-1p0xx5xx8--|
|--3p0-3p0-xx1p0-1p0xx3xx6--|
|--3p0-3p0-xx1p0-1p0xx------|


|---------------------------------|
|---------------------------------|
|---------------------------------|
|--3p0-3p0-xx1p0-1p0--------------|
|--3p0-3p0-xx1p0-1p0--------------|
|--3p0-3p0-xx1p0-1p0-0-0-0-0-0-0--|


|---------------------------|
|---------------------------|
|---------------------5xx8--|
|--3p0-3p0-xx1p0-1p0xx5xx8--|
|--3p0-3p0-xx1p0-1p0xx3xx6--|
|--3p0-3p0-xx1p0-1p0xx------|

Continue and fade out



[You must be registered and logged in to see this image.]


CrowX
Administrator
View user profile

7 Re: B Side Guitar tabs on Mon 09 Mar 2009, 05:09

CrowX


Administrator
GOD OF THE MIND

Intro
Eb :-----------------------|
Bb :-----------------------|
Gb :------------------3-3-3|
Db :3-5-3-6-3-5-3-6-3-3-3-3|
Ab :3-5-3-6-3-5-3-6-3-1-1-1|
Db :3-5-3-6-3-5-3-6-3------|

Pre-Verse
Eb :----------------|
Bb :----------------|
Gb :----------------|
Db :0---------------|
Ab :0---------------|
Db :0---------------|

Verses (Palm Muted)
Eb :---------------------|---------------------|
Bb :---------------------|---------------------|
Gb :---------------------|---------------------|
Db :---------------------|---------------------|
Ab :3-5-3-5-3-5-3-5-3-5-3|-5-3-5-3-5-3-5-3-5-6-|
Db :---------------------|---------------------|
| (Distorted)
Pre-Chorus
Eb :-------------------------------|
Bb :-------------------------------|
Gb :-------------------------------|
Db :0-0-0-3-3-3-0-0-0-3-3-3-0-0-3-3|
Ab :-------------------------------|
Db :-------------------------------|

Chorus
Eb :----------------|
Bb :----------------|
Gb :----------------|
Db :0--3--0--3--0-3-|
Ab :0--3--0--3--0-3-|
Db :0--3--0--3--0-3-|

Interlude
Eb :--------------5-|-----------------|
Bb :----------------|--------------3^-|
Gb :----------------|-----------------|
Db :6-xxxx6-xxxxxx--|6-xxxx6-xxxxxx---|
Ab :6-xxxx6-xxxxxx--|6-xxxx6-xxxxxx---|
Db :6-xxxx6-xxxxxx--|6-xxxx6-xxxxxx---|

Outro
Eb :-------------------------------|
Bb :-------------------------------|
Gb :-------------------------------|
Db :0-0-0-3-3-3-0-0-0-3-3-3-0-0-3-3|
Ab :0-0-0-3-3-3-0-0-0-3-3-3-0-0-3-3|
Db :0-0-0-3-3-3-0-0-0-3-3-3-0-0-3-3|



[You must be registered and logged in to see this image.]


CrowX
Administrator
View user profile

8 Re: B Side Guitar tabs on Mon 09 Mar 2009, 05:10

CrowX


Administrator
A WELCOME BURDEN

Tuning: Drop D Flat (Db Ab Db Gb Bb Eb)

Chorus:
|-----------------------------------------------------------------|
|-----------------------------------------------------------------|
|-----------------------------------------------------------------|
|-5-6-5------5-6-5---5-6-5-----6-8-6---5-6-5------5-6-5---1-3-1-3-|
|-3-4-3-4-3--3-4-3-4-3-4-3-4-3-4-6-4-6-3-4-3-4-3--3-4-3-4-1-3-1-3-|
|-------4-3--------4-------4-3-------6-------4-3--------4-1-3-1-3-|

|-------------------------------------------------------------------------|
|-------------------------------------------------------------------------|
|-------------------------------------------------------------------------|
|-5-6-5------5-6-5---5-6-5-----6-8-6---5-6-5------5-6-5---1-3-1-3-1-3-1-3-|
|-3-4-3-4-3--3-4-3-4-3-4-3-4-3-4-6-4-6-3-4-3-4-3--3-4-3-4-1-3-1-3-1-3-1-3-|
|-------4-3--------4-------4-3-------6-------4-3--------4-1-3-1-3-1-3-1-3-|
Play both riffs 2 times total

Verse
|-------|
|-------|
|-5~~~~-|
|-X~~~~-|
|-3~~~~-|
|-------|

|--------------------|
|--------------------|
|--------------------|
|-10-13-10--10-13-10-|
|--------------------|
|--------------------|x16*
PM-----------------|
*=On the 14th time let go of Palm Mute

Pre-Chorus:
|------------------|
|------------------|
|------------------|
|-3-6-3-5--3-6-3-5-|
|-3-6-3-5--3-6-3-5-|
|-3-6-3-5--3-6-3-5-|x8*
*=On the 5-8th time let the end 5 bars ring

Play Chorus 1 time
Repeat verse the same way



[You must be registered and logged in to see this image.]


CrowX
Administrator
View user profile

9 Re: B Side Guitar tabs on Mon 09 Mar 2009, 05:13

CrowX


Administrator
THIS MOMENT

Will find soon



[You must be registered and logged in to see this image.]


CrowX
Administrator
View user profile

10 Re: B Side Guitar tabs on Mon 09 Mar 2009, 05:14

CrowX


Administrator
Glass shatters

(glass breaks)
(Lowly)Step up cause' ......
e|-------------------------------------------------------------|
B|-------------------------------------------------------------|
G|-------------------6----------------------0------------------|
D|---0-0--0-1--0-0----------0-0--0-1--0-0----------------------| 2x
A|---0-0--0-1--0-0----------0-0--0-1--0-0----------------------|
E|---0-0--0-1--0-0----------0-0--0-1--0-0----------------------|


(loud)Step up cause' ......
e|-------------------------------------------------------------|
B|-------------------------------------------------------------|
G|-------------------------------------------------------------|
D|---0-0---0-1---0-0---0-0---1-0-------------------------------| 8x
A|---0-0---0-1---0-0---0-0---1-0-------------------------------|
E|---0-0---0-1---0-0---0-0---1-0-------------------------------|


I'm breakin' the.......
e|-------------------------------------------------------------|
B|-------------------------------------------------------------|
G|-------------------------------------------------------------|
D|-------------------------------------------------------------| 4x
A|-------------------------------------------------------------|
E|---0h6--0h6--0h6--0h6--6-7-----0h6--0h6--0h6--0h6--7-6-------|

Repeat all of this a 2nd time



e|-------------------------------------------------------------|
B|-------------------------------------------------------------|
G|--------6-------------0------------6b-------------0~---------| (vibrato with
D|-------------------------------------------------------------| tromolo bar)
A|-------------------------------------------------------------|
E|-------------------------------------------------------------|

long pause (only drums are playing)


I'm breakin' the.......
e|-------------------------------------------------------------|
B|-------------------------------------------------------------|
G|-------------------------------------------------------------|
D|-------------------------------------------------------------| 2x
A|-------------------------------------------------------------|
E|---0h6--0h6--0h6--0h6--6-7-----0h6--0h6--0h6--0h6--7-6-------|

(glass breaks)
(Lowly)Step up cause' ......
e|-------------------------------------------------------------|
B|-------------------------------------------------------------|
G|-------------------6----------------------0------------------|
D|---0-0--0-1--0-0----------0-0--0-1--0-0----------------------| 2x
A|---0-0--0-1--0-0----------0-0--0-1--0-0----------------------|
E|---0-0--0-1--0-0----------0-0--0-1--0-0----------------------|


(loud)Step up cause' ......
e|-------------------------------------------------------------|
B|-------------------------------------------------------------|
G|-------------------------------------------------------------|
D|---0-0---0-1---0-0---0-0---1-0-------------------------------| 8x
A|---0-0---0-1---0-0---0-0---1-0-------------------------------|
E|---0-0---0-1---0-0---0-0---1-0-------------------------------|


I'm breakin' the.......
e|-------------------------------------------------------------|
B|-------------------------------------------------------------|
G|-------------------------------------------------------------|
D|-------------------------------------------------------------| 4x
A|-------------------------------------------------------------|
E|---0h6--0h6--0h6--0h6--6-7-----0h6--0h6--0h6--0h6--7-6-------|



[You must be registered and logged in to see this image.]


CrowX
Administrator
View user profile

11 Re: B Side Guitar tabs on Mon 09 Mar 2009, 05:15

CrowX


Administrator
PARASITE

~~~~~~~~~~~~~~Main Riff~~~~~~~~~~~~~~~~~~~

F|-------------------------------------------|
A|-------------------------------------------|
D|-------------------------------------------|
C|-7-----8-----5-----7------10-8---7-8-5-----|
G|-7-----8-----5-----7------10-8---7-8-5-----|
C|-5-0-0-6-0-0-3-0-0-5-0-0--8--6---5-6-3-0-0-|

F|-------------------|---------|-------------|
A|-------------------|---------|-------------|
D|-------------------|---------|-------------|
C|-7-----8-----5-----|--10-10--|---1-1-1-----|
G|-7-----8-----5-----|--10-10--|---1-1-1-----|
C|-5-0-0-6-0-0-3-0-0-|--8--8---|---3-3-3-----|
~~~1st~~~~~~~~2nd~~~~~~~

~~~~~~~~~~~~~~~Chorus~~~~~~~~~~~~~~~~~~~~~~~~~

F|---------------------------------------|
A|---------------------------------------|
D|---------------------------------------|
C|-7-7-7--8-8-8--5-5-5--7-7-7--10-10-8-8-|
G|-7-7-7--8-8-8--5-5-5--7-7-7--10-10-8-8-|
C|-5-5-5--6-6-6--3-3-3--5-5-5--8--8--6-6-|

F|---------------------------------------|
A|---------------------------------------|
D|---------------------------------------|
C|-7-7-7--8-8-8--5-5-5--7-7-7--8---10----|
G|-7-7-7--8-8-8--5-5-5--7-7-7--8---10----|
C|-5-5-5--6-6-6--3-3-3--5-5-5--6---8-----|

F|---------------------------------------|
A|---------------------------------------|
D|---------------------------------------|
C|-7-7-7--8-8-8--5-5-5--7-7-7--10-10-8-8-|
G|-7-7-7--8-8-8--5-5-5--7-7-7--10-10-8-8-|
C|-5-5-5--6-6-6--3-3-3--5-5-5--8--8--6-6-|

F|---------------------------------------|
A|---------------------------------------|
D|---------------------------------------|
C|-7-7-7-7---7-7-7---5---5-5-5-5-5-------|
G|-7-7-7-7---7-7-7---5---5-5-5-5-5-------|
C|-5-5-5-5---5-5-5---3---3-3-3-3-3-------|



[You must be registered and logged in to see this image.]


CrowX
Administrator
View user profile

12 Re: B Side Guitar tabs on Mon 09 Mar 2009, 05:16

CrowX


Administrator
RUN

Will find soon



[You must be registered and logged in to see this image.]


CrowX
Administrator
View user profile

13 Re: B Side Guitar tabs Today at 15:28

Sponsored content


View previous topic View next topic Back to top  Message [Page 1 of 1]

Permissions in this forum:
You cannot reply to topics in this forum

FacebookTwitterFacebookFacebook

 
  •  

Create a forum on Forumotion | © PunBB | Free forum support | Contact | Report an abuse | Forumotion.com