You are not connected. Please login or register

View previous topic View next topic Go down  Message [Page 1 of 1]

1Believe Bass Tabs Empty Believe Bass Tabs on Sat 07 Mar 2009, 16:39

Ravensclaw

Ravensclaw
Administrator
Prayer

Intro-
---------------------------------------------------------------
--------------------------------------------------------------- 4 times
---------------------------------------------------------------
0-0-0-0-22-0-0--0-0-0-0-22-0-0--0-0-0-0-22-0-0--0-0-0-0-22-0-0-

Verse- Another Dream about to come true...
----------------------------------------------------------------
---------------------------------------------------------------- 4 times
----------------------------------------------------------------
0-0-0-0-0-0--0-0-0-0-0-0--5-5-5-5-5-5--0-0-2-2-0-2--------------

Pre Chorus- Let me enlighten you...
----------------------------------------------------------------
---------------------------------------------------------------- 4 times
7-11-1-1-1-1-4/-------------------------------------------------
----------------------------------------------------------------

Chorus- This is the way I pray...
----------------------------------------------------------------
---------------------------------------------------------------- 2 times
--------------------------------2-2-2-2-2-2-2-2--------5-5-5-5--
7-7-7-7-7-7-7-7-2-2-2-2-5-5-5-5---------------2-2-2-2-----------

Pre Verse-
---------------------------------------------------------------
--------------------------------------------------------------- 4 times
---------------------------------------------------------------
0-0-0-0-22-0-0--0-0-0-0-22-0-0--0-0-0-0-22-0-0--0-0-0-0-22-0-0-

Verse- Another nightmare about to come true...
----------------------------------------------------------------
---------------------------------------------------------------- 4 times
----------------------------------------------------------------
0-0-0-0-0-0--0-0-0-0-0-0--5-5-5-5-5-5--0-0-2-2-0-2--------------

Pre Chorus- Let me enlighten you...
----------------------------------------------------------------
---------------------------------------------------------------- 4 times
7-11-1-1-1-1-4/-------------------------------------------------
----------------------------------------------------------------

Chorus- This is the way I pray...
----------------------------------------------------------------
---------------------------------------------------------------- 2 times
--------------------------------2-2-2-2-2-2-2-2--------5-5-5-5--
7-7-7-7-7-7-7-7-2-2-2-2-5-5-5-5---------------2-2-2-2-----------

Pre Interlude- Away...........
---------------------------------------------------------------
--------------------------------------------------------------- 1 time
---------------------------------------------------------------
0-0-0-0-22-0-0--0-0-0-0-22-0-0--0-0-0-0-22-0-0--0-0-0-0-22-0-0-

Interlude- Return to me...
-----------------------------------------------------------
----------------------------------------------------------- 4 times
-----------------------------------------------------------
0202-0202-0202-2-0-22-2-0-2-5------------------------------

Chorus- This is the way I pray...
----------------------------------------------------------------
---------------------------------------------------------------- 4 times
--------------------------------2-2-2-2-2-2-2-2--------5-5-5-5--
7-7-7-7-7-7-7-7-2-2-2-2-5-5-5-5---------------2-2-2-2-----------

Pre Outro- Away.............
---------------------------------------------------------------
--------------------------------------------------------------- 1 time
---------------------------------------------------------------
0-0-0-0-22-0-0--0-0-0-0-22-0-0--0-0-0-0-22-0-0--0-0-0-0-22-0-0-

Outro-
---------------------------------------------------------------
--------------------------------------------------------------- 1 time
---------------------------------------------------------------
0-0-0000-0-0-0000-0-0-0000-0-0---------------------------------



[You must be registered and logged in to see this image.]


Ravensclaw
Administrator
The Pioneer All Things Disturbed Joke!

2Believe Bass Tabs Empty Re: Believe Bass Tabs on Sat 07 Mar 2009, 16:41

Ravensclaw

Ravensclaw
Administrator
Liberate

Intro
Gb------------------------------|
Db------------------------------| x7
Ab-2h4--4-4-4-4--4-4-4-2h4-4-4--|
Db------------------------------|


Gb-------------------------|
Db-------------------------|
Ab-2h4--4-4-4-4--4-4-4-5\--|
Db-------------------------|


Verse
Gb-----------------------------|
Db-----------------------------|
Ab-----------------------------|
Db-0-2-2-0-2--0h2-2-0h2-2-2----|


Gb-------------------------------------------------------|
Db-------------------------------------------------------|
Ab-------------------------------------------------------|
Db-2-3-3--3-3/8--8--8-8-8-8-8-0-2-2--0-2--0h2-2-0h2-2-2--|


Gb---------------------------|
Db---------------------------|
Ab---------------------------|
Db-0-2-2-0-2--0h2-2-0h2-2-2--|


Gb-----------------------------|
Db-----------------------------|
Ab-----------------------------|
Db-0-2-2-0-2--0h2-2-0h2-2-2----|


Gb-------------------------------------------------------|
Db-------------------------------------------------------|
Ab-------------------------------------------------------|
Db-2-3-3--3-3/8--8--8-8-8-8-8-0-2-2--0-2--0h2-2-0h2-2-2--|


Gb---------------------|
Db---------------------|
Ab---------------------|
Db-0-2-2-0-2--0h2-2-0--|


Gb------------------------------------------------------------------|
Db------------------------------------------------------------------|
Ab---------------------------------------------2-2-2-2-2-2-2-2-2-2--|
Db-0h2-2-2-2-2-2-2-2-2-2-2-2-2-2-2-1-1-1-1-1-1----------------------|


Gb--------------------------------------------------------------|
Db--------------------------------------------------------------|
Ab-3-3-3-3-3-3-3-3-3-3-3-3-3-3-3-3------------------------------|
Db---------------------------------5-5-5-5-5-5/9-9-9-9-9-9-9-9--|


Gb------------------------------------------------------------------|
Db------------------------------------------------------------------|
Ab---------------------------------------------2-2-2-2-2-2-2-2-2-2--|
Db-0h2-2-2-2-2-2-2-2-2-2-2-2-2-2-2-1-1-1-1-1-1----------------------|


Gb--------------------------------------------------------------|
Db--------------------------------------------------------------|
Ab-3-3-3-3-3-3-3-3-3-3-3-3-3-3-3-3------------------------------|
Db---------------------------------5-5-5-5-5-5/9-9-9-9-9-9-9-9--|


Gb-----------------------|
Db-----------------------|
Ab------------6----------|
Db-7-7-7----7---7--/15\--|


Chorus
Gb----------------------------------------------|
Db----------------------------------------------| x3
Ab-3-3--3-3--3-3--3-3--3------------------------|
Db-----------------------2-2--2-2--2-2--2-2--2--|


Gb----------------------------------------------|
Db----------------------------------------------|
Ab------------------------2-2--2-2--2-2--2-2----|
Db-0-0--0-0--0-0--0-0--0---------------------5--|

Gb--------------------------------------------------------|
Db--------------------------------------------------------|
Ab--------------------------------------------------------|
Db-0h2--2-2-2-2--2-2-2-0-2-2-2-0h2--2-2-2--2-2-2-0-2-2-2--|


Gb--------------------------------------------------------|
Db--------------------------------------------------------|
Ab--------------------------------------------------------|
Db-0h2--2-2-2--2-2-2-0-2-2-2-0h2--2-2-2-2--2-2-2-X-X-X-X--|


Verse
Gb-----------------------------|
Db-----------------------------|
Ab-----------------------------|
Db-0-2-2-0-2--0h2-2-0h2-2-2----|


Gb-------------------------------------------------------|
Db-------------------------------------------------------|
Ab-------------------------------------------------------|
Db-2-3-3--3-3/8--8--8-8-8-8-8-0-2-2--0-2--0h2-2-0h2-2-2--|


Gb---------------------------|
Db---------------------------|
Ab---------------------------|
Db-0-2-2-0-2--0h2-2-0h2-2-2--|


Gb-----------------------------|
Db-----------------------------|
Ab-----------------------------|
Db-0-2-2-0-2--0h2-2-0h2-2-2----|


Gb-------------------------------------------------------|
Db-------------------------------------------------------|
Ab-------------------------------------------------------|
Db-2-3-3--3-3/8--8--8-8-8-8-8-0-2-2--0-2--0h2-2-0h2-2-2--|


Gb---------------------|
Db---------------------|
Ab---------------------|
Db-0-2-2-0-2--0h2-2-0--|


Gb------------------------------------------------------------------|
Db------------------------------------------------------------------|
Ab---------------------------------------------2-2-2-2-2-2-2-2-2-2--|
Db-0h2-2-2-2-2-2-2-2-2-2-2-2-2-2-2-1-1-1-1-1-1----------------------|


Gb--------------------------------------------------------------|
Db--------------------------------------------------------------|
Ab-3-3-3-3-3-3-3-3-3-3-3-3-3-3-3-3------------------------------|
Db---------------------------------5-5-5-5-5-5/9-9-9-9-9-9-9-9--|


Gb------------------------------------------------------------------|
Db------------------------------------------------------------------|
Ab---------------------------------------------2-2-2-2-2-2-2-2-2-2--|
Db-0h2-2-2-2-2-2-2-2-2-2-2-2-2-2-2-1-1-1-1-1-1----------------------|


Gb--------------------------------------------------------------|
Db--------------------------------------------------------------|
Ab-3-3-3-3-3-3-3-3-3-3-3-3-3-3-3-3------------------------------|
Db---------------------------------5-5-5-5-5-5/9-9-9-9-9-9-9-9--|


Gb-----------------------|
Db-----------------------|
Ab------------6----------|
Db-7-7-7----7---7--/15\--|

Waiting...
Gb----------------------------------------------|
Db----------------------------------------------| x3
Ab-3-3--3-3--3-3--3-3--3------------------------|
Db-----------------------2-2--2-2--2-2--2-2--2--|


Gb----------------------------------------------|
Db----------------------------------------------|
Ab------------------------2-2--2-2--2-2--2-2----|
Db-0-0--0-0--0-0--0-0--0---------------------5--|


Gb-----------------|
Db-----------------| x2
Ab-----------------|
Db-2-2-2----2-2-2--|


Gb-----------------------|
Db-----------------------| x2
Ab--------2~-------------|
Db-2-2-2------2-2-2--0~--|


Gb-----------------------|
Db-----------------------| x2
Ab--------2~-------------|
Db-2-2-2------2-2-2--0~--|


Gb---------------------------------------------------------------------|
Db---------------------------------------------------------------------|
Ab--------2-2-2-2-------------------------2-2-2-2----------------------|
Db2-2-2-2---------2-2-2-2-0-0-0-0-2-2-2-2---------2-2-2-2-0-0-0--0-0-0-|


Gb---------------------|
Db---------------------|
Ab-3-3-------3-3-------|
Db------2-2------2-2---|

Gb---------------------------------------------------------------------|
Db---------------------------------------------------------------------|
Ab-3-3--3-3--3-3--3-3--3-----------------------------------------------|
Db-----------------------2-2--2-2--2-2--2-2--2--0-0--0-0--0-0--0-0--0--|


Gb-----------------------------|
Db-----------------------------|
Ab-2-2--2-2--2-2--2-2----------|
Db--------------------5-5-5-5--|

Gb----------------------------------------------------|
Db----------------------------------------------------| x3
Ab-3-3--3-3--3-3--3-3--3------------------------------|
Db-----------------------2-2--2-2--2-2--2-2--2--------|


Gb-------------------------------------------------|
Db-------------------------------------------------|
Ab------------------------0h2-0h2-0h2-0h2----------|
Db-0-0--0-0--0-0--0-0--0------------------5-5-5-5--|


Outro
Gb------------------------------|
Db------------------------------| x8
Ab------------------------------|
Db-0h2--2-2-2-2--2-2-2-0h2-2-2--|



[You must be registered and logged in to see this image.]


Ravensclaw
Administrator
The Pioneer All Things Disturbed Joke!

3Believe Bass Tabs Empty Re: Believe Bass Tabs on Sat 07 Mar 2009, 16:42

Ravensclaw

Ravensclaw
Administrator
Awaken

5-String bass
Fuzz doesnt use the B string at all in this song
so you can play it on a 4 string.

Tuning: tuned down to Drop D, then tuned down one half step
low to high: (Bb, Db, Ab, Db, Gb)

This tab is 100% correct, no doubts about it, see for yourself.

Intro (0:00)
Gb-------------------------------------------------
Db-------------------------------------------------
Ab-----8-7---------------------8-7---------------
Db-3-2------3-2--3-2-6-5-5--3-2------3-2--6-5-5-5--
Bb-------------------------------------------------

Gb---------------------------------------------------
Db---------------------------------------------------
Ab-----8-7---------------------8-7-----------------
Db-3-2------3-2--3-2-6-5-5--3-2------3-2-5-5--X-X-X--
Bb---------------------------------------------------

Gb-------------------------------------------------
Db-------------------------------------------------
Ab-----8-7---------------------8-7---------------
Db-3-2------3-2--3-2-6-5-5--3-2------3-2--6-5-5-5--
Bb-------------------------------------------------

Gb---------------------------------------------------
Db---------------------------------------------------
Ab-----8-7---------------------8-7-----------------
Db-3-2------3-2--3-2-6-5-5--3-2------3-2-5-5--X-X-X--
Bb---------------------------------------------------

Verse (0:19)
Stripped of life...
Gb------------------------
Db------------------------ X16
Ab-----8-7---------------
Db-3-2------3-2--2-2-5-5--
Bb------------------------

Chorus (0:58)
Awaken... Feed on your nothing...
Gb-----------------------------------------------------
Db-----------------------------------------------------
Ab-----------------------------------------------------
Db-2-0-3---2-0-3---2-0-3--2-0-0-0-0--0-0-0-0-0--0-0-0--
Bb-----------------------------------------------------

Gb------------------------------------------------------
Db------------------------------------------------------
Ab------------------------------------------------------
Db-2-0-3---2-0-3---2-0-3--2--0-0-0-0--0-0-0-0-0--0-0-0--
Bb------------------------------------------------------

(1:17)
Gb--------------------------------------------------------
Db--------------------------------------------------------
Ab--------------------------------------------------------
Db-3-2-X-X-X-3-2-X-X-X-X-3-2---3-2-X-X-X-3-2-X-X-X-X-3-2--
Bb--------------------------------------------------------

Gb------------------------------------------------
Db------------------------------------------------
Ab------------------------------------------------
Db-3-2-X-X-X-3-2-X-X-X-X-3-2--6/5--5-5--5--5-5-5--
Bb------------------------------------------------

Gb--------------------------------------------------------
Db--------------------------------------------------------
Ab--------------------------------------------------------
Db-3-2-X-X-X-3-2-X-X-X-X-3-2---3-2-X-X-X-3-2-X-X-X-X-3-2--
Bb--------------------------------------------------------

Gb------------------------------------------------
Db------------------------------------------------
Ab------------------------------------------------
Db-3-2-X-X-X-3-2-X-X-X-X-3-2--6/5--5-5--5--5-5-5--
Bb------------------------------------------------

Interlude (1:36)
Gb------------------------
Db------------------------ X4
Ab-----8-7---------------
Db-3-2------3-2--2-2-5-5--
Bb------------------------

Verse (1:46)
Stripped of life...
Gb-----------------------------------------
Db----------------------------------------- X6
Ab-----8-7--------------8-7--------------
Db-3-2------3-2-2-2--3-2------3-2-5-5-5-5--
Bb-----------------------------------------

(2:15)
With the way you tired...
Gb-------------------------------------------------
Db-------------------------------------------------
Ab-----8-7---------------------8-7---------------
Db-3-2------3-2-3-2-/6-5-5--3-2------3-2-/6-5-5-5--
Bb-------------------------------------------------

Gb--------------------------------------
Db--------------------------------------
Ab-----8-7-----------------------------
Db-3-2------3-2-3-2/6-5-5--3-2--3-2--5--
Bb--------------------------------------

Chorus (2:25)
Awaken...
Gb-----------------------------------------------------
Db-----------------------------------------------------
Ab-----------------------------------------------------
Db-2-0-3---2-0-3---2-0-3--2-0-0-0-0--0-0-0-0-0--0-0-0--
Bb-----------------------------------------------------

Gb------------------------------------------------------
Db------------------------------------------------------
Ab------------------------------------------------------
Db-2-0-3---2-0-3---2-0-3--2--0-0-0-0--0-0-0-0-0--0-0-0--
Bb------------------------------------------------------

(2:45)
Gb--------------------------------------------------------
Db--------------------------------------------------------
Ab--------------------------------------------------------
Db-3-2-X-X-X-3-2-X-X-X-X-3-2---3-2-X-X-X-3-2-X-X-X-X-3-2--
Bb--------------------------------------------------------

Gb------------------------------------------------
Db------------------------------------------------
Ab------------------------------------------------
Db-3-2-X-X-X-3-2-X-X-X-X-3-2--6/5--5-5--5--5-5-5--
Bb------------------------------------------------

Gb--------------------------------------------------------
Db--------------------------------------------------------
Ab--------------------------------------------------------
Db-3-2-X-X-X-3-2-X-X-X-X-3-2---3-2-X-X-X-3-2-X-X-X-X-3-2--
Bb--------------------------------------------------------

Gb----------------------------------------------------
Db----------------------------------------------------
Ab----------------------------------------------------
Db-3-2-X-X-X-3-2-X-X-X-X-3-2--6/5--5-5--5--5-5-5-2~~--
Bb----------------------------------------------------

Bridge (3:09)
There isn't a thing...
Gb-------------------------2---------4-----------
Db-----------------------------------------------
Ab------3-3-------2-3-3--0----0-0--2----3-2-2----
Db-2-2-------2-2------------------------------4--
Bb-----------------------------------------------

Gb-------------------------2-----------4------------2--------
Db------------------------------------------------2----2-----
Ab------3-3-------2-3-3--0----0-0--2-2----2-2-2-0---------0--
Db-2-2-------2-2---------------------------------------------
Bb-----------------------------------------------------------

Gb-----------------------------------
Db-----------------------------------
Ab-2-2-2-2-2-2-2-2-2-2-2-2-22222222--
Db-----------------------------------
Bb-----------------------------------

Chorus (3:45)
Awaken...
Gb-----------------------------------------------------
Db-----------------------------------------------------
Ab-----------------------------------------------------
Db-2-0-3---2-0-3---2-0-3--2-0-0-0-0--0-0-0-0-0--0-0-0--
Bb-----------------------------------------------------

Gb-----------------------------------------------------
Db-----------------------------------------------------
Ab-----------------------------------------------------
Db-2-0-3---2-0-3---2-0-3--2-0-0-0-0--0-0-0-0-0--0-0-0--
Bb-----------------------------------------------------

Outro (4:04) played fast
Gb----------------------------------
Db---------------------------------- X7
Ab----------------------------------
Db-3-2-2-2-2-2-3-2-2-2-2-2-3-2-2-2--
Bb----------------------------------

Gb------------------------------
Db------------------------------
Ab------------------------------
Db-3-2-2-2-2-2-3-2-2-2-2-2-3-2--
Bb------------------------------



[You must be registered and logged in to see this image.]


Ravensclaw
Administrator
The Pioneer All Things Disturbed Joke!

4Believe Bass Tabs Empty Re: Believe Bass Tabs on Sat 07 Mar 2009, 16:45

Ravensclaw

Ravensclaw
Administrator
Believe


5-String bass
Fuzz doesnt use the B string at all in this song
so you can play it on a 4 string.

Tuning: tuned down to Drop D, then tuned down one half step
low to high: (Bb, Db, Ab, Db, Gb)

This tab is 100% correct, no doubts about it, see for yourself.

Intro (0:00)
Gb-------------------------------------------------
Db-------------------------------------------------
Ab-----8-7---------------------8-7---------------
Db-3-2------3-2--3-2-6-5-5--3-2------3-2--6-5-5-5--
Bb-------------------------------------------------

Gb---------------------------------------------------
Db---------------------------------------------------
Ab-----8-7---------------------8-7-----------------
Db-3-2------3-2--3-2-6-5-5--3-2------3-2-5-5--X-X-X--
Bb---------------------------------------------------

Gb-------------------------------------------------
Db-------------------------------------------------
Ab-----8-7---------------------8-7---------------
Db-3-2------3-2--3-2-6-5-5--3-2------3-2--6-5-5-5--
Bb-------------------------------------------------

Gb---------------------------------------------------
Db---------------------------------------------------
Ab-----8-7---------------------8-7-----------------
Db-3-2------3-2--3-2-6-5-5--3-2------3-2-5-5--X-X-X--
Bb---------------------------------------------------

Verse (0:19)
Stripped of life...
Gb------------------------
Db------------------------ X16
Ab-----8-7---------------
Db-3-2------3-2--2-2-5-5--
Bb------------------------

Chorus (0:58)
Awaken... Feed on your nothing...
Gb-----------------------------------------------------
Db-----------------------------------------------------
Ab-----------------------------------------------------
Db-2-0-3---2-0-3---2-0-3--2-0-0-0-0--0-0-0-0-0--0-0-0--
Bb-----------------------------------------------------

Gb------------------------------------------------------
Db------------------------------------------------------
Ab------------------------------------------------------
Db-2-0-3---2-0-3---2-0-3--2--0-0-0-0--0-0-0-0-0--0-0-0--
Bb------------------------------------------------------

(1:17)
Gb--------------------------------------------------------
Db--------------------------------------------------------
Ab--------------------------------------------------------
Db-3-2-X-X-X-3-2-X-X-X-X-3-2---3-2-X-X-X-3-2-X-X-X-X-3-2--
Bb--------------------------------------------------------

Gb------------------------------------------------
Db------------------------------------------------
Ab------------------------------------------------
Db-3-2-X-X-X-3-2-X-X-X-X-3-2--6/5--5-5--5--5-5-5--
Bb------------------------------------------------

Gb--------------------------------------------------------
Db--------------------------------------------------------
Ab--------------------------------------------------------
Db-3-2-X-X-X-3-2-X-X-X-X-3-2---3-2-X-X-X-3-2-X-X-X-X-3-2--
Bb--------------------------------------------------------

Gb------------------------------------------------
Db------------------------------------------------
Ab------------------------------------------------
Db-3-2-X-X-X-3-2-X-X-X-X-3-2--6/5--5-5--5--5-5-5--
Bb------------------------------------------------

Interlude (1:36)
Gb------------------------
Db------------------------ X4
Ab-----8-7---------------
Db-3-2------3-2--2-2-5-5--
Bb------------------------

Verse (1:46)
Stripped of life...
Gb-----------------------------------------
Db----------------------------------------- X6
Ab-----8-7--------------8-7--------------
Db-3-2------3-2-2-2--3-2------3-2-5-5-5-5--
Bb-----------------------------------------

(2:15)
With the way you tired...
Gb-------------------------------------------------
Db-------------------------------------------------
Ab-----8-7---------------------8-7---------------
Db-3-2------3-2-3-2-/6-5-5--3-2------3-2-/6-5-5-5--
Bb-------------------------------------------------

Gb--------------------------------------
Db--------------------------------------
Ab-----8-7-----------------------------
Db-3-2------3-2-3-2/6-5-5--3-2--3-2--5--
Bb--------------------------------------

Chorus (2:25)
Awaken...
Gb-----------------------------------------------------
Db-----------------------------------------------------
Ab-----------------------------------------------------
Db-2-0-3---2-0-3---2-0-3--2-0-0-0-0--0-0-0-0-0--0-0-0--
Bb-----------------------------------------------------

Gb------------------------------------------------------
Db------------------------------------------------------
Ab------------------------------------------------------
Db-2-0-3---2-0-3---2-0-3--2--0-0-0-0--0-0-0-0-0--0-0-0--
Bb------------------------------------------------------

(2:45)
Gb--------------------------------------------------------
Db--------------------------------------------------------
Ab--------------------------------------------------------
Db-3-2-X-X-X-3-2-X-X-X-X-3-2---3-2-X-X-X-3-2-X-X-X-X-3-2--
Bb--------------------------------------------------------

Gb------------------------------------------------
Db------------------------------------------------
Ab------------------------------------------------
Db-3-2-X-X-X-3-2-X-X-X-X-3-2--6/5--5-5--5--5-5-5--
Bb------------------------------------------------

Gb--------------------------------------------------------
Db--------------------------------------------------------
Ab--------------------------------------------------------
Db-3-2-X-X-X-3-2-X-X-X-X-3-2---3-2-X-X-X-3-2-X-X-X-X-3-2--
Bb--------------------------------------------------------

Gb----------------------------------------------------
Db----------------------------------------------------
Ab----------------------------------------------------
Db-3-2-X-X-X-3-2-X-X-X-X-3-2--6/5--5-5--5--5-5-5-2~~--
Bb----------------------------------------------------

Bridge (3:09)
There isn't a thing...
Gb-------------------------2---------4-----------
Db-----------------------------------------------
Ab------3-3-------2-3-3--0----0-0--2----3-2-2----
Db-2-2-------2-2------------------------------4--
Bb-----------------------------------------------

Gb-------------------------2-----------4------------2--------
Db------------------------------------------------2----2-----
Ab------3-3-------2-3-3--0----0-0--2-2----2-2-2-0---------0--
Db-2-2-------2-2---------------------------------------------
Bb-----------------------------------------------------------

Gb-----------------------------------
Db-----------------------------------
Ab-2-2-2-2-2-2-2-2-2-2-2-2-22222222--
Db-----------------------------------
Bb-----------------------------------

Chorus (3:45)
Awaken...
Gb-----------------------------------------------------
Db-----------------------------------------------------
Ab-----------------------------------------------------
Db-2-0-3---2-0-3---2-0-3--2-0-0-0-0--0-0-0-0-0--0-0-0--
Bb-----------------------------------------------------

Gb-----------------------------------------------------
Db-----------------------------------------------------
Ab-----------------------------------------------------
Db-2-0-3---2-0-3---2-0-3--2-0-0-0-0--0-0-0-0-0--0-0-0--
Bb-----------------------------------------------------

Outro (4:04) played fast
Gb----------------------------------
Db---------------------------------- X7
Ab----------------------------------
Db-3-2-2-2-2-2-3-2-2-2-2-2-3-2-2-2--
Bb----------------------------------

Gb------------------------------
Db------------------------------
Ab------------------------------
Db-3-2-2-2-2-2-3-2-2-2-2-2-3-2--
Bb------------------------------



[You must be registered and logged in to see this image.]


Ravensclaw
Administrator
The Pioneer All Things Disturbed Joke!

5Believe Bass Tabs Empty Re: Believe Bass Tabs on Sat 07 Mar 2009, 16:47

Ravensclaw

Ravensclaw
Administrator
Remember

Notes:
-Played with a pick.
-Fuzz uses a 5-string but it's too hard to play this song on one.
-The verse has been expanded by one space; the notes are still sixteenth
notes.

(4/4, changes noted)(82 bpm)
Dropped-D tuned a half step down (low to high: Db Ab Db Gb)

. - sixteenth rest
r - eighth rest
R - quarter rest
/ - slide up

Intro: (x2)(0:09)
|----------------|----------------|----------------|----------------|
|----------------|----------------|----------------|----------------|
|----1-----0-----|----1-----0-----|----1-----0-----|----1-----0----0|
|0-03--0003--0303|0-03--0003--03.3|0-03--0003--0303|0-03--0003-0030-|

Verse 1 (fill): (x2)(0:33)
|--|--------------------------------------|--|------------------------|
|8:|--------------------------------------|5:|------------------------|
|8:|---------13----------12---------------|8:|---------13----------12-|
|--|0--12-15-----0-12-15-----0-12-15-0-15-|--|0--12-15-----0-12-15----|

|--|--------------------------------------|--|------------------------------|
|8:|--------------------------------------|6:|------------------------------|
|8:|---------13----------12---------------|8:|---------13-------------------|
|--|0--12-15-----0-12-15-----0-12-15-0-15-|--|0--12-15-----0-12-15-10-10-10-|

Chorus: (0:53)
|--|----------------|----------------|----------------|----------------|
|4:|----------------|----------------|----------------|----------------|
|4:|----------------|----------------|----------------|----55----------|
|--|8-88888--8887-77|0--0000-00000-00|3-33333--3335-5-|0--0--0--0000-00|

|----------------|----------------|----------------|----------------|
|----------------|----------------|----------------|----------------|
|----------------|---------5553333|----------------|----------------|
|8--8888--8887-7-|0--0000-0-------|5-5555-55-555557|7-7777777-777-7-|

Fill

Verse 2: (1:26)
|--|--------------------------------------|--|------------------------|
|8:|--------------------------------------|5:|------------------------|
|8:|---------13----------12---------------|8:|---------13----------12-|
|--|0--12-15-----0-12-15-----0-12-15-0-15-|--|0--12-15-----0-12-15----|

|--|--------------------------------------|--|------------------------------|
|8:|--------------------------------------|6:|------------------------------|
|8:|---------13----------12---------------|8:|---------13-------------------|
|--|0--12-15-----0-12-15-----0-12-15-0-15-|--|0--12-15-----0-12-15-10-10-10-|

|--|--------------------------------------|--|------------------------|
|8:|--------------------------------------|5:|------------------------|
|8:|---------13----------12---------------|8:|---------13----------12-|
|--|0--12-15-----0-12-15-----0-12-15-0-15-|--|0--12-15-----0-12-15----|

|--|--------------------------------------|--------------------------------|
|8:|--------------------------------------|--------------------------------|
|8:|---------13----------12---------------|---------13----------12-r--R----|
|--|0--12-15-----0-12-15-----0-12-15-0-15-|0--12-15-----0-12-15------------|

Chorus

Bridge: (2:10)
|-----------------|----------------|-----------------|----------------|
|-----------------|----------------|-----------------|----------------|
|1--11.1/5-5-55-1-|----------------|1--11.1/5-5-55-1-|----------------|
|-----------------|3330--0--0-03-0-|-----------------|3330-.0-.0--0-0-|

|-----------------|----------------|----------------|-------------------|
|-----------------|----------------|----------------|-------------------|
|1--11.1/5-5-55-1-|----------------|----------------|-------------------|
|-----------------|3330--0--0-03-0-|5-.5-.5-.5-.5-5-|2-.2-.2-.2.222/14-\|

Interlude: (2:33)
|----------------|----------------|----------------|----------------|
|----------------|----------------|----------------|----------------|
|----11----00----|----11----00----|----11----00----|----11----00----|
|0003--0003--0303|0003--0003--0303|0003--0003--0303|0003--0003--0303|

|----------------|----------------|----------------|----------------|
|----------------|----------------|----------------|----------------|
|----11----00----|----11----00----|----11----00----|----11----------|
|0003--0003--0303|0003--0003--0303|0003--0003--0303|0003--00053r-3-.|

Chorus (x2)

Outro: (3:43)
|----------------|----------------|----------------|----------------|
|----------------|----------------|----------------|----------------|
|----1-----0-----|----1-----0-----|----1-----0-----|----1-----0----0|
|0-03--0003--0303|0-03--0003--03.3|0-03--0003--0303|0-03--0003-0030-|

|----------------|----------------|----------------|----------------|
|----------------|----------------|----------------|----------------|
|----1-----0-----|----1-----0-----|----1-----0-----|----1-----0-----|
|0-03--0003--0303|0-03--0003--03.3|0-03--0003--0303|0-03--0003--03r-|



[You must be registered and logged in to see this image.]


Ravensclaw
Administrator
The Pioneer All Things Disturbed Joke!

6Believe Bass Tabs Empty Re: Believe Bass Tabs on Sat 07 Mar 2009, 16:48

Ravensclaw

Ravensclaw
Administrator
Intoxication

5-String bass
Fuzz doesnt use the B string at all in this song
so you can play it on a 4 string.

Tuning: tuned down to Drop D, then tuned down one half step
low to high: (Bb, Db, Ab, Db, Gb)

This tab is 100% correct, no doubts about it, see for yourself.

Intro (0:00)
Gb---------------------------------------------------------
Db--------------------------------------------------------- X4
Ab---------------------------------------------------------
Db-6-5-2--2-5-3-2-2--5-3-5-2--6-5-2--2-5-3-2-2--3-2-3-0-3--
Bb---------------------------------------------------------

Verse (0:19)
Now, your tell me you like it...
Gb---------------------------------------------------------
Db--------------------------------------------------------- X4
Ab---------------------------------------------------------
Db-6-5-2--2-5-3-2-2--5-3-5-2--6-5-2--2-5-3-2-2--3-2-3-0-3--
Bb---------------------------------------------------------

Pre-Chorus (0:38)
high.. What can you take from me...
Gb---------------------------------------
Db---------------------------------------
Ab---------------------------------------
Db-2---2/3--3--3-3/7--2---2/3--3--3-0-0--
Bb---------------------------------------

Buy.. Exhilaration.. Laughing..
Gb---------------------------------------------
Db---------------------------------------------
Ab---------------------------------------------
Db-2---2/3--3--3-3/7--10--10--10-5--5--5-5--5--
Bb---------------------------------------------

away.. what will you take from me...
Gb---------------------------------------
Db---------------------------------------
Ab---------------------------------------
Db-2---2/3--3--3-3/7--2---2/3--3--3-0-0--
Bb---------------------------------------

inside Intoxication Now are you feeling
Gb---------------------------------------------
Db---------------------------------------------
Ab---------------------------------------------
Db-2---2/3--3--3-3/7--10--10--10-5--5--5-5--5--
Bb---------------------------------------------

Chorus (0:58)
Enough... to villify Love
Gb------------------------------------------------------------
Db--------------------------------------------------3----5----
Ab-------3----3---3/5--3--------2--------2-0--3--3-----3---3--
Db-3--3-----3---3---------2--2-----2-2-2----------------------
Bb------------------------------------------------------------

endowed
Gb---------------------------------------------------------------
Db-------5-----3-------------------------------------------------
Ab----5----------------------3----3---3/5-3--------2--------2----
Db-5--------5-----5-5--3--3-----3---3--------2--2-----2-2-2---2--
Bb---------------------------------------------------------------

need...
Gb------------------------
Db------------------------
Ab------------------------
Db-0--0-0-0-0-0--0-0-0-0--
Bb------------------------

To carry over...
Gb----------------------------
Db----------5--5--7-5---------
Ab--------5-----------7-5-----
Db-5--5-5-----------------3~--
Bb----------------------------

(1:19)
Gb---------------------------------------------------------
Db--------------------------------------------------------- X2
Ab---------------------------------------------------------
Db-6-5-2--2-5-3-2-2--5-3-5-2--6-5-2--2-5-3-2-2--3-2-3-0-3--
Bb---------------------------------------------------------

Verse (1:28)
Gb---------------------------------------------------------
Db--------------------------------------------------------- X4
Ab---------------------------------------------------------
Db-6-5-2--2-5-3-2-2--5-3-5-2--6-5-2--2-5-3-2-2--3-2-3-0-3--
Bb---------------------------------------------------------

Pre-Chorus (1:48)
high.. What can you take from me...
Gb---------------------------------------
Db---------------------------------------
Ab---------------------------------------
Db-2---2/3--3--3-3/7--2---2/3--3--3-0-0--
Bb---------------------------------------

Buy.. Exhilaration.. Laughing..
Gb---------------------------------------------
Db---------------------------------------------
Ab---------------------------------------------
Db-2---2/3--3--3-3/7--10--10--10-5--5--5-5--5--
Bb---------------------------------------------

away.. what will you take from me...
Gb---------------------------------------
Db---------------------------------------
Ab---------------------------------------
Db-2---2/3--3--3-3/7--2---2/3--3--3-0-0--
Bb---------------------------------------

inside Intoxication Now are you feeling
Gb---------------------------------------------
Db---------------------------------------------
Ab---------------------------------------------
Db-2---2/3--3--3-3/7--10--10--10-5--5--5-5--5--
Bb---------------------------------------------

Chorus (2:07)
Enough... to villify Love
Gb------------------------------------------------------------
Db--------------------------------------------------3----5----
Ab-------3----3---3/5--3--------2--------2-0--3--3-----3---3--
Db-3--3-----3---3---------2--2-----2-2-2----------------------
Bb------------------------------------------------------------

endowed
Gb---------------------------------------------------------------
Db-------5-----3-------------------------------------------------
Ab----5----------------------3----3---3/5-3--------2--------2----
Db-5--------5-----5-5--3--3-----3---3--------2--2-----2-2-2---2--
Bb---------------------------------------------------------------

need...
Gb------------------------
Db------------------------
Ab------------------------
Db-0--0-0-0-0-0--0-0-0-0--
Bb------------------------

Intoxicating...
Gb---------------------------
Db---------------------------
Ab------5-5----5----5-5------
Db-5--5-----5-----5-----5-5--
Bb---------------------------

Enough... to villify Love
Gb-------------------------------------------------------------------
Db-------------------------------------------------------------------
Ab-------3----3---3/5--3--------2--------2---------------------------
Db-3--3-----3---3---------2--2-----2-2-2---2--0--0-0-0-0-0--0-0-0-0--
Bb-------------------------------------------------------------------

endowed
Gb------------------------------------------------------------------
Db----------5--5--7-5-----------------------------------------------
Ab--------5-----------7-5-------3----3---3/5-3--------2--------2----
Db-5--5-5-----------------3--3-----3---3--------2--2-----2-2-2---2--
Bb------------------------------------------------------------------

need...
Gb------------------------
Db------------------------
Ab------------------------
Db-0--0-0-0-0-0--0-0-0-0--
Bb------------------------

To carry over...
Gb----------------------------
Db----------5--5--7-5---------
Ab--------5-----------7-5-----
Db-5--5-5-----------------3~--
Bb----------------------------

Interlude (2:50)
Gb-------------------------------------------------
Db------------------------------------------------- X2
Ab-------------------------------------------------
Db-2-2-X-X-X-2-2-X-X-X-X-X-2-2-X-X-X-2-2-X-X-X--X--
Bb-------------------------------------------------

Outro (2:59)
Now, you tell me you like it...
Gb---------------------------------------------------
Db---------------------------------------------------
Ab---------------------------------------------------
Db-6/5-2-X-X-X-2-2-X-X-X-X-X-2-2-X-X-X-2-2-X-X-X--X--
Bb---------------------------------------------------

Gb------------------------------------------------
Db------------------------------------------------
Ab------------------------------------------------
Db-6/5-2-X-X-X-2-2-X-X-X-X-X-2-2-X-X-X-2-2-X-X-X--
Bb------------------------------------------------



[You must be registered and logged in to see this image.]


Ravensclaw
Administrator
The Pioneer All Things Disturbed Joke!

7Believe Bass Tabs Empty Re: Believe Bass Tabs on Sat 07 Mar 2009, 16:49

Ravensclaw

Ravensclaw
Administrator
Rise

5-String bass
Fuzz doesnt use the B string at all in this song
so you can play it on a 4 string.

Tuning: tuned down to Drop D, then tuned down one half step
low to high: (Bb, Db, Ab, Db, Gb)

This tab is 100% correct, no doubts about it, see for yourself.

Intro (0:00) Both riffs X2
Gb---------------------------------------------------------------------
Db---------------------------------------------------------------------
Ab---------------------------------------------------------------------
Db-10h12-0-12-0-12-0-12-12-10h12-10--10h12-0-12-0-12-0-12-12-10h12-10--
Bb---------------------------------------------------------------------

Gb-------------------------------------------------------------
Db-------------------------------------------------------------
Ab-------------------------------------------------------------
Db-10h12-0-12-0-12-0-12-12-10h12-10-6-6-6-6/15-15-15-10-10-10--
Bb-------------------------------------------------------------


Verse (0:14) Both riffs X4
Rise, throw away...
Gb---------------------------------------------------------------------
Db---------------------------------------------------------------------
Ab---------------------------------------------------------------------
Db-10h12-0-12-0-12-0-12-12-10h12-10--10h12-0-12-0-12-0-12-12-10h12-10--
Bb---------------------------------------------------------------------

Gb-------------------------------------------------------------
Db-------------------------------------------------------------
Ab-------------------------------------------------------------
Db-10h12-0-12-0-12-0-12-12-10h12-10-6-6-6-6/15-15-15-10-10-10--
Bb-------------------------------------------------------------

Pre-Chorus (0:46)
Do you really like...
Gb-----------------
Db----------------- X4
Ab-----------------
Db-0-0-0-0--0-0-0--
Bb-----------------

Chorus (0:52)
Come take me away...
Gb----------------------------------------------------------------
Db-------10-10-10-10-10-------10-10-10-10-10--------10-10-10------
Ab-5--5--8--8--8--8--8--5--5--8--8--8--8--8---5--5--8--8--8--8-8--
Db----------------------------------------------------------------
Bb----------------------------------------------------------------

Gb----------------------
Db------------7------5--
Ab-7--7-7-7-7---7-7-----
Db----------------------
Bb----------------------

Gb----------------------------------------------------------------
Db-------10-10-10-10-10-------10-10-10-10-10--------10-10-10------
Ab-5--5--8--8--8--8--8--5--5--8--8--8--8--8---5--5--8--8--8--8-8--
Db----------------------------------------------------------------
Bb----------------------------------------------------------------

Gb----------------------
Db------------7------5--
Ab-7--7-7-7-7---7-7-----
Db----------------------
Bb----------------------

Bridge (1:06)
Gb---------------------------------------------------------
Db----------------------------------------------------12--
Ab---------------------------------------------------------
Db-8-8-8-8-8-8-8--8--10--0--8-8-8-8-8-8-8--8--10--12-------
Bb---------------------------------------------------------

Gb-----------------------------------------------------------------------
Db-----------------------------------------------------------------------
Ab-----------------------------------------------------------------------
Db-8-8-8-8-8-8-8--8--10--0--3-3-3-3-3-3-3-3-3-3-3-3-8-8-8-8-8-8-8-8-8-8--
Bb-----------------------------------------------------------------------

(1:21)
Gb---------------------------------------------------------------------
Db---------------------------------------------------------------------
Ab---------------------------------------------------------------------
Db-10h12-0-12-0-12-0-12-12-10h12-10--10h12-0-12-0-12-0-12-12-10h12-10--
Bb---------------------------------------------------------------------

Gb-------------------------------------------------------------
Db-------------------------------------------------------------
Ab-------------------------------------------------------------
Db-10h12-0-12-0-12-0-12-12-10h12-10-6-6-6-6/15-15-15-10-10-10--
Bb-------------------------------------------------------------

Verse (1:28) Both riffs X2
Gb---------------------------------------------------------------------
Db---------------------------------------------------------------------
Ab---------------------------------------------------------------------
Db-10h12-0-12-0-12-0-12-12-10h12-10--10h12-0-12-0-12-0-12-12-10h12-10--
Bb---------------------------------------------------------------------

Gb-------------------------------------------------------------
Db-------------------------------------------------------------
Ab-------------------------------------------------------------
Db-10h12-0-12-0-12-0-12-12-10h12-10-6-6-6-6/15-15-15-10-10-10--
Bb-------------------------------------------------------------

Pre-Chorus (1:44)
Do you really like...
Gb-----------------
Db----------------- X4
Ab-----------------
Db-0-0-0-0--0-0-0--
Bb-----------------

Chorus (1:50)
Come take me away...
Gb----------------------------------------------------------------
Db-------10-10-10-10-10-------10-10-10-10-10--------10-10-10------
Ab-5--5--8--8--8--8--8--5--5--8--8--8--8--8---5--5--8--8--8--8-8--
Db----------------------------------------------------------------
Bb----------------------------------------------------------------

Gb----------------------
Db------------7------5--
Ab-7--7-7-7-7---7-7-----
Db----------------------
Bb----------------------

Gb----------------------------------------------------------------
Db-------10-10-10-10-10-------10-10-10-10-10--------10-10-10------
Ab-5--5--8--8--8--8--8--5--5--8--8--8--8--8---5--5--8--8--8--8-8--
Db----------------------------------------------------------------
Bb----------------------------------------------------------------

Gb----------------------
Db------------7------5--
Ab-7--7-7-7-7---7-7-----
Db----------------------
Bb----------------------

Bridge (2:06)
Gb---------------------------------------------------------
Db----------------------------------------------------12--
Ab---------------------------------------------------------
Db-8-8-8-8-8-8-8--8--10--0--8-8-8-8-8-8-8--8--10--12-------
Bb---------------------------------------------------------

Gb-----------------------------------------------------------------------
Db-----------------------------------------------------------------------
Ab-----------------------------------------------------------------------
Db-8-8-8-8-8-8-8--8--10--0--3-3-3-3-3-3-3-3-3-3-3-3-8-8-8-8-8-8-8-8-8-8--
Bb-----------------------------------------------------------------------

Interlude (2:20)
Gb-----------------------------------------
Db----------------------------------------- X8
Ab-----------------------------------------
Db-0-0--3-1-0-0--1-3-0-0--3-1-0-1-0-1-0-3--
Bb-----------------------------------------

Gb-----------------------------------------------
Db-----------------------------------------------
Ab-----------------------------------------------
Db-8-8-8-8-8-8-8-8-8-8-8-8-8-8-8-8-8-8-8-8-8-10--
Bb-----------------------------------------------

Bridge (2:53)
Gb---------------------------------------------------------
Db----------------------------------------------------12--
Ab---------------------------------------------------------
Db-8-8-8-8-8-8-8--8--10--0--8-8-8-8-8-8-8--8--10--12-------
Bb---------------------------------------------------------

Gb------------------------------------------------------------------------
Db------------------------------------------------------------------------
Ab------------------------------------------------------------------------
Db-8-8-8-8-8-8-8--8--10--0--3-3-3-3-3-3-3-3-3-3-3-3-8-8-8-8-8-8-8-8-8-10--
Bb------------------------------------------------------------------------

(3:08)
I cannot stop this...
Gb-----------------------------
Db----------------------------- X3
Ab-----------------------------
Db-8-8-8-8-8-8----0-0-0-0-0-0--
Bb-----------------------------

(3:19)
Gb------------------------------------
Db------------------------------------
Ab------------------------------------
Db-3-3-3-3-3-3-3-3-3-333888888888888--
Bb------------------------------------

Outro (3:27) Both riffs X4
Gb---------------------------------------------------------------------
Db---------------------------------------------------------------------
Ab---------------------------------------------------------------------
Db-10h12-0-12-0-12-0-12-12-10h12-10--10h12-0-12-0-12-0-12-12-10h12-10--
Bb---------------------------------------------------------------------

Gb-------------------------------------------------------------
Db-------------------------------------------------------------
Ab-------------------------------------------------------------
Db-10h12-0-12-0-12-0-12-12-10h12-10-6-6-6-6/15-15-15-10-10-10--
Bb-------------------------------------------------------------

Gb------
Db------
Ab------
Db-12--
Bb------



[You must be registered and logged in to see this image.]


Ravensclaw
Administrator
The Pioneer All Things Disturbed Joke!

8Believe Bass Tabs Empty Re: Believe Bass Tabs on Sat 07 Mar 2009, 16:51

Ravensclaw

Ravensclaw
Administrator
Mistress

Tuning: tuned down to Drop D, then tuned down one half step
low to high: (Bb, Db, Ab, Db, Gb)

Intro (0:00)
Gb-----------------------------------------------------------
Db----------------------------------------------------------- X4
Ab-----------------------------------------------------------
Db-2-2--9-9-9-9-5-5-5-7-7-5-2--2-2--9-9-9-9-5-5-5-7-7-10-10--
Bb-----------------------------------------------------------

Verse (0:20)
Gb--------------------------------------------------------
Db--------------------------------------------------------
Ab--------------------------------------------------------
Db-2-2----2-2----2-2---2-2----2-2--9-9-9-9-5-5-5-7-7-5-2--
Bb--------------------------------------------------------

Gb-----------------------------------------------------------
Db----------------------------------------------------------- X2
Ab-----------------------------------------------------------
Db-2-2--9-9-9-9-5-5-5-7-7-5-2--2-2--9-9-9-9-5-5-5-7-7-10-10--
Bb-----------------------------------------------------------

Chorus (0:40)
Gb------------------------------------------------------
Db------------------------------------------------------ X2
Ab--------------------------------5---------------------
Db-9--4-4-4--0--5--5--5-2--9--4---4--0--0--5--5--5-5--
Bb------------------------------------------------------

Gb-----------------------------------
Db-----------------------------------
Ab-----------------------------------
Db-6-6--6--6-6-6-5-5--5--5--5-5-5-5--
Bb-----------------------------------

Gb-----------------------------------------------------------
Db----------------------------------------------------------- X2
Ab-----------------------------------------------------------
Db-2-2--9-9-9-9-5-5-5-7-7-5-2--2-2--9-9-9-9-5-5-5-7-7-10-10--
Bb-----------------------------------------------------------

Verse (1:16)

Gb--------------------------------------------------------
Db--------------------------------------------------------
Ab--------------------------------------------------------
Db-2-2----2-2----2-2---2-2----2-2--9-9-9-9-5-5-5-7-7-5-2--
Bb--------------------------------------------------------

Gb-----------------------------------------------------------
Db----------------------------------------------------------- X2
Ab-----------------------------------------------------------
Db-2-2--9-9-9-9-5-5-5-7-7-5-2--2-2--9-9-9-9-5-5-5-7-7-10-10--
Bb-----------------------------------------------------------

Chorus (1:36)
Gb------------------------------------------------------
Db------------------------------------------------------ X2
Ab--------------------------------5---------------------
Db-9--4-4-4--0--5--5--5-2--9--4---4--0--0--5--5--5-5--
Bb------------------------------------------------------

Gb------------------------------------------
Db------------------------------------------
Ab-------------------------------------2~~--
Db-6--6--6--6--6-6--5--5--5--5--5-5-5-------
Bb------------------------------------------

(2:06)
Gb--------------------------------------------------------
Db----------------------------------2---2--2----2---2--2--
Ab-2~------------------5---5-5-4--------------------------
Db--------------------------------------------------------
Bb--------------------------------------------------------

Gb---------------------------------------------
Db------------------------------------------4--
Ab---------------------4--2--2--2----2-2-2-----
Db-5---5--5-5--0---4---------------------------
Bb---------------------------------------------

Gb--------------------------------------------------
Db-5--5------------------------------------------4--
Ab------------5----------------4-5--2--2--2----2----
Db-------5--5---5--4--4--4---4---------------4------
Bb--------------------------------------------------

Gb------------------------------------------------------
Db-----------4--5--5------------------------------------
Ab-2--2--2-----------------5----------------------------
Db--------------------5--5---5--0--0--0--4--4--4--4--4--
Bb------------------------------------------------------

Interlude (2:46)

Gb-----------------------------
Db-----------------------------
Ab-----------------------------
Db-2-2-----2-2-----2-2----2-2--
Bb-----------------------------

Chorus (2:56)
Gb------------------------------------------------------
Db------------------------------------------------------ X2
Ab--------------------------------5---------------------
Db-9--4-4-4--0--5--5--5-2--9--4---4--0--0--5--5--5-5--
Bb------------------------------------------------------

Gb--------------------------------------
Db--------------------------------------
Ab--------------------------------------
Db-6--6--6--6--6-6--5--5--5--5-5-5-5-5--
Bb--------------------------------------

Outro (3:21)
Gb-----------------------------------------------------------
Db----------------------------------------------------------- X4
Ab-----------------------------------------------------------
Db-2-2--9-9-9-9-5-5-5-7-7-5-2--2-2--9-9-9-9-5-5-5-7-7-10-10--
Bb-----------------------------------------------------------

Gb------
Db------
Ab------
Db-2-2--
Bb------
100% Correct



[You must be registered and logged in to see this image.]


Ravensclaw
Administrator
The Pioneer All Things Disturbed Joke!

9Believe Bass Tabs Empty Re: Believe Bass Tabs on Sat 07 Mar 2009, 16:52

Ravensclaw

Ravensclaw
Administrator
Breathe

5-String bass

Tuning: tuned down to Drop D, then tuned down one half step
low to high: (Bb, Db, Ab, Db, Gb)

This tab is 100% correct, no doubts about it, see for yourself.

Intro (0:00)
Gb------------------------------------------------
Db----------7------7-----9-----------7------------ X2
Ab-0-0--7h9----7h9-----7----0-0--7h9---5-----3----
Db----------------------------------------3----5--
Bb------------------------------------------------

Verse (0:12)
You will release your life...
Gb------------------------------------------------
Db----------7------7-----9-----------7------------ X4
Ab-0-0--7h9----7h9-----7----0-0--7h9---5-----3----
Db----------------------------------------3----5--
Bb------------------------------------------------

again...
Gb----------------
Db----------------
Ab-7-7-7-7-7-7-7--
Db----------------
Bb----------------

Pre-Chorus (0:38)
From the heart of darkness...
Gb----------------------------------------------------------------------------
Db----------------------------------------------------------------------------
Ab----------------------------------------------------------------------------
Db-3-3-3--3-3-3-3--3-3-3-3--0-0-0--0-0-0-0--0-0-0-0---------------------------
Bb---------------------------------------------------1-1-1--1-1-1-1--1-1-1-1--

Gb----------------------------------------------------------------------------------------
Db----------------------------------------------------------------------------------------
Ab-----------------------------------------------------------------------5-5-5-5-5-5-5-7--
Db-3-3-3--3-3-3-3--3-2--3-3-3--3-3-3-3--3-3-3-3--2-2-2--2-2-2-2--2-2-2-2------------------
Bb----------------------------------------------------------------------------------------

Chorus (0:57)
You will release...
Gb-------------------------------------------------
Db-------------------------------------------------
Ab----------------------------------3---3/53------
Db-7-7--5-5--0-0---0--0-0-0--0--3-3---3-------3-3--
Bb-------------------------------------------------

Gb-----------------------------------------------------
Db-----------------------------------------------------
Ab------5-----5h7-5------------------------------------
Db-5--5---5-5-------5-3--7-7--5-5--0-0---0--0-0-0-0-0--
Bb-----------------------------------------------------

Gb----------------------------------------
Db----------------------------------------
Ab------3---3/53-----------2---2h3p2-----
Db-3--3---3-------3-3--2--2---2-------2~--
Bb----------------------------------------

(1:16)
Gb-----------------------------------------------
Db----------7------7-----9-----------7----------- X2
Ab-0-0--7h9----7h9-----7----0-0--7h9---5----3----
Db----------------------------------------3---5--
Bb-----------------------------------------------

Verse (1:27)
You will release your life...
Gb-----------------------------------------------
Db----------7------7-----9-----------7----------- X4
Ab-0-0--7h9----7h9-----7----0-0--7h9---5----3----
Db----------------------------------------3---5--
Bb-----------------------------------------------

again...
Gb----------------
Db----------------
Ab-7-7-7-7-7-7-7--
Db----------------
Bb----------------

Pre-Chorus (1:54)
From the heart of darkness...
Gb----------------------------------------------------------------------------
Db----------------------------------------------------------------------------
Ab----------------------------------------------------------------------------
Db-3-3-3--3-3-3-3--3-3-3-3--0-0-0--0-0-0-0--0-0-0-0---------------------------
Bb---------------------------------------------------1-1-1--1-1-1-1--1-1-1-1--

Gb----------------------------------------------------------------------------------------
Db----------------------------------------------------------------------------------------
Ab-----------------------------------------------------------------------5-5-5-5-5-5-5-7--
Db-3-3-3--3-3-3-3--3-2--3-3-3--3-3-3-3--3-3-3-3--2-2-2--2-2-2-2--2-2-2-2------------------
Bb----------------------------------------------------------------------------------------

Chorus (2:12)
You will release...
Gb-------------------------------------------------
Db-------------------------------------------------
Ab----------------------------------3---3/53------
Db-7-7--5-5--0-0---0--0-0-0--0--3-3---3-------3-3--
Bb-------------------------------------------------

Gb-----------------------------------------------------
Db-----------------------------------------------------
Ab------5-----5h7-5------------------------------------
Db-5--5---5-5-------5-3--7-7--5-5--0-0---0--0-0-0-0-0--
Bb-----------------------------------------------------

Gb----------------------------------------
Db----------------------------------------
Ab------3---3/53-----------2---2h3p2-----
Db-3--3---3-------3-3--2--2---2-------2~--
Bb----------------------------------------

Gb-------------------------------------------------
Db-------------------------------------------------
Ab----------------------------------3---3/53------
Db-7-7--5-5--0-0---0--0-0-0--0--3-3---3-------3-3--
Bb-------------------------------------------------

Gb-----------------------------------------------------
Db-----------------------------------------------------
Ab------5-----5h7-5------------------------------------
Db-5--5---5-5-------5-3--7-7--5-5--0-0---0--0-0-0-0-0--
Bb-----------------------------------------------------

Gb--------------------------------------
Db--------------------------------------
Ab------3---3/53-----------2---2-------
Db-3--3---3-------3-3--2--2---2---2-2~--
Bb--------------------------------------

(2:49) REST

(3:02)
Gb-------------------------------
Db-------------------------------
Ab----------0--------------------
Db-5-5-5-5--------5-5--7-7--5-5--
Bb-------------------------------

Chorus (3:20)
You will release...
Gb-------------------------------------------------
Db-------------------------------------------------
Ab----------------------------------3---3/53------
Db-7-7--5-5--0-0---0--0-0-0--0--3-3---3-------3-3--
Bb-------------------------------------------------

Gb---------------------------------------------------
Db---------------------------------------------------
Ab------5-----5h7-5----------------------------------
Db-5--5---5-5-------5-3--7-7--5-5--0-0--0--0-0-0--0--
Bb---------------------------------------------------

Gb---------------------------------------
Db---------------------------------------
Ab------3---3/53-----------2---2--------
Db-3--3---3-------3-3--2--2---2---2-2-2--
Bb---------------------------------------

You will release your life...
Gb-------------------------------------------------
Db-------------------------------------------------
Ab----------------------------------3---3/53------
Db-7-7--5-5--0-0---0--0-0-0--0--3-3---3-------3-3--
Bb-------------------------------------------------

Gb---------------------------------------------------
Db---------------------------------------------------
Ab------5-----5h7-5----------------------------------
Db-5--5---5-5-------5-3--7-7--5-5--0-0--0--0-0-0--0--
Bb---------------------------------------------------

Gb---------------------------------------
Db---------------------------------------
Ab------3---3/53-----------2---2--------
Db-3--3---3-------3-3--2--2---2---2-2-2--
Bb---------------------------------------

Outro (3:56)
Gb---------------------------------------
Db---------------------------------------
Ab------3---3/53-----------2---2--------
Db-3--3---3-------3-3--2--2---2---2-2-2--
Bb---------------------------------------

Gb------------------------------------------
Db------------------------------------------
Ab------3---3-------------2---2-------------
Db-3--3---3---3-3-3--2--2---2---2-2-2--7~~--
Bb------------------------------------------



[You must be registered and logged in to see this image.]


Ravensclaw
Administrator
The Pioneer All Things Disturbed Joke!

10Believe Bass Tabs Empty Re: Believe Bass Tabs on Sat 07 Mar 2009, 16:53

Ravensclaw

Ravensclaw
Administrator
Bound

5-String bass

Tuning: tuned down to Drop D, then tuned down one half step
low to high: (Bb, Db, Ab, Db, Gb)

This tab is 100% correct, no doubts about it, see for yourself.

Intro (0:09)
Gb-------------------------------------------------------------------
Db------------------------------------------------------------------- X2
Ab-------------------------------------------------------------------
Db-3-3-3-------2-2-2-5-5-5-5-5-5-5--3-3-3-------2-2-2-5-5-5-2-2-5-5--
Bb-------3-3-3----------------------------3-3-3----------------------

Interlude (0:19)
Gb------------------------------------------------
Db------------------------------------------------
Ab----2-----3--------------2---------------3-3----
Db-2-----3-------5-5-3--2-----0-3-0-5-5-3------3--
Bb-------------1----------------------------------

Gb-----------------------------------------------
Db-----------------------------------------------
Ab----2-----3--------------2---------------------
Db-2-----3-------5-5-3--2-----0-3-0--0--0-5-5-3--
Bb-------------1---------------------------------

Gb------------------------------------------------
Db------------------------------------------------
Ab----2-----3--------------2---------------3-3----
Db-2-----3-------5-5-3--2-----0-3-0-5-5-3------3--
Bb-------------1----------------------------------

Gb-----------------------------------------------
Db-----------------------------------------------
Ab----2-----3--------------2---------------------
Db-2-----3-------5-5-3--2-----0-3-0--0--0-5-5-3--
Bb-------------1---------------------------------

Verse (0:40)
oh, I'm not ready...
Gb---------------------------------------------------------------------------
Db--------------------------------------------------------------------------- X2
Ab-7--2-----3---7--2---------------3-3----7--2-----3-----2-------------------
Db-------3------------0-3-0-5-5-3------3--------3-----2-----0-3-0--0--0-5-3--
Bb---------------------------------------------------------------------------

Chorus (0:50)
Gb----------------------------------------------------------------------
Db----------------------------------------------------------------------
Ab---7-7-5------------------7-7-5------------------7-7-5----------------
Db-2--------0-0-0--0-0-0--2--------0-0-0--0-0-0--2--------0-0-0--0-0-0--
Bb----------------------------------------------------------------------

Gb---------------------------------------------------------------
Db---------------------------------------------------------------
Ab-------------------7-7-5------------------7-7-5----------------
Db-5--5--5--5-5----2--------0-0-0--0-0-0--2--------0-0-0--0-0-0--
Bb--------------0------------------------------------------------

Gb--------------------------------------------------------------------------
Db--------------------------------------------------------------------------
Ab---7-7-5--------------------------------3--3--3--3--3-3-------------------
Db-2--------0-0-0--0-0-0--5--5--5--5-5-5------------------------------------
Bb--------------------------------------------------------1--1--1--1--1--1--

Interlude (1:25)
Gb-------------------------------------------------------------------
Db-------------------------------------------------------------------
Ab-------------------------------------------------------------------
Db-3-3-3-------2-2-2-5-5-5-2-2-5-5--3-3-3-------2-2-2-7-7-7-7-7-7-7--
Bb-------3-3-3----------------------------3-3-3----------------------

Gb----------------------------------
Db----------------------------------
Ab----------------------------------
Db-3-3-3-------2-2-2-5-5-5-2-2-5-5--
Bb-------3-3-3----------------------

Verse (1:34)
oh, I'm not ready...
Gb---------------------------------------------------------------------------
Db--------------------------------------------------------------------------- X2
Ab-7--2-----3---7--2---------------3-3----7--2-----3-----2-------------------
Db-------3------------0-3-0-5-5-3------3--------3-----2-----0-3-0--0--0-5-3--
Bb---------------------------------------------------------------------------

Chorus (1:54)
Gb----------------------------------------------------------------------
Db----------------------------------------------------------------------
Ab---7-7-5------------------7-7-5------------------7-7-5----------------
Db-2--------0-0-0--0-0-0--2--------0-0-0--0-0-0--2--------0-0-0--0-0-0--
Bb----------------------------------------------------------------------

Gb---------------------------------------------------------------
Db---------------------------------------------------------------
Ab-------------------7-7-5------------------7-7-5----------------
Db-5--5--5--5-5----2--------0-0-0--0-0-0--2--------0-0-0--0-0-0--
Bb--------------0------------------------------------------------

Gb--------------------------------------------------------------------------
Db--------------------------------------------------------------------------
Ab---7-7-5--------------------------------3--3--3--3--3-3-------------------
Db-2--------0-0-0--0-0-0--5--5--5--5-5-5------------------------------------
Bb--------------------------------------------------------1--1--1--1--1--1--

Gb----------------------------------
Db----------------------------------
Ab-3--3--3--3--3-3------------------
Db----------------------------------
Bb-----------------1--1--1--1--1-1--

(2:28)
Gb----------------------------
Db---------------------------- X8
Ab-2--------2-----------------
Db---5-4-2----5-4-2--6-3-0-5--
Bb----------------------------

(2:48)
Gb-------------------------------------------------------
Db-------------------------------------------------------
Ab-2--------2-----------------2--------2-----------------
Db---5-4-2----5-4-2--6-3-0-5----5-4-2----5-4-2--6-3-0-5--
Bb-------------------------------------------------------

Gb--------------------------------------------------
Db--------------------------------------------------
Ab-2--------2-----------------2--------2-----2------
Db---5-4-2----5-4-2--6-3-0-5----5-4-2----5-4---3-3--
Bb--------------------------------------------------

Chorus (2:58)
Gb----------------------------------------------------------------------
Db----------------------------------------------------------------------
Ab---7-7-5------------------7-7-5------------------7-7-5----------------
Db-2--------0-0-0--0-0-0--2--------0-0-0--0-0-0--2--------0-0-0--0-0-0--
Bb----------------------------------------------------------------------

Gb---------------------------------------------------------------
Db---------------------------------------------------------------
Ab-------------------7-7-5------------------7-7-5----------------
Db-5--5--5--5-5----2--------0-0-0--0-0-0--2--------0-0-0--0-0-0--
Bb--------------0------------------------------------------------

Gb------------------------------------------
Db------------------------------------------
Ab---7-7-5----------------------------------
Db-2--------0-0-0--0-0-0--5--5--5---5-5-----
Bb---------------------------------------0--

Outro (3:17)
Gb---------------------------------------------------------------------
Db---------------------------------------------------------------------
Ab---7-7-5------------------7-7-5-----------------7-7-5----------------
Db-2--------0-0-0--0-0-0--2-------0-0-0--0-0-0--2--------0-0-0--0-0-0--
Bb---------------------------------------------------------------------

Gb-----------------
Db-----------------
Ab-----------------
Db-5--5--5--5-5----
Bb--------------0--

Gb---------------------------------------------------------------------
Db---------------------------------------------------------------------
Ab---7-7-5------------------7-7-5-----------------7-7-5----------------
Db-2--------0-0-0--0-0-0--2-------0-0-0--0-0-0--2--------0-0-0--0-0-0--
Bb---------------------------------------------------------------------

Gb----------------------
Db----------------------
Ab----------------------
Db-5--5--5--5-5----2~~--
Bb--------------0-------



[You must be registered and logged in to see this image.]


Ravensclaw
Administrator
The Pioneer All Things Disturbed Joke!

11Believe Bass Tabs Empty Re: Believe Bass Tabs on Sat 07 Mar 2009, 16:53

Ravensclaw

Ravensclaw
Administrator
Devour

Tuning-Bb, Db, Ab, Db, Gb

Intro
Gb-------2----------------|
Db----4-------------4-----| x2
Ab-2-------------2-----0--|
Db------------------------|
Bb------------------------|

Verse
Gb-------2---------------------------2-----------------|
Db----4-------------4-------------4--------------4-----|
Ab-2-------------2-----0-------2--------------2-----0--|
Db-----------------------------------------------------|
Bb-----------------------------------------------------|

Gb------------------------------------------------------|
Db------------------------------------------------------|
Ab-0--2--2h3-2--0--2--2h3-2---0--2--2h3-2--0--2--2h3-2--|
Db------------------------------------------------------|
Bb------------------------------------------------------|

Gb----------------------------------------------------|
Db----------------------------------------------------|
Ab-0--2--2h3-2--0--2--2h3--2--0--2--2h3-2--0--2--2h3--|
Db----------------------------------------------------|
Bb----------------------------------------------------|

Gb---------------------------------------|
Db---------------------------------------|
Ab---------------------------------------|
Db------------------------------0--2--2--|
Bb-0-0-0-----0--0-0---0-0-0--------------|

Chorus
Gb------------------------------------------------------------|
Db------------------------------------------------------------|
Ab-----------------5-------------------------4----------------|
Db-/9--7--5--5-5-5---5-5-5--0--0--0-4--4-4-4---4-4/9--7--7-5--|
Bb------------------------------------------------------------|

Gb-----------------------------------------|
Db-----------------------------------------|
Ab-------5---------------------------------|
Db-5-5-5---5-5--2--2--2-4--4-4-4-4-4-4-4/--|
Bb-----------------------------------------|

Gb------------------------------------------------------------|
Db------------------------------------------------------------|
Ab-----------------5-------------------------4----------------|
Db-/9--7--5--5-5-5---5-5-5--0--0--0-4--4-4-4---4-4/9--7--7-5--|
Bb------------------------------------------------------------|

Gb--------------------------------------|
Db--------------------------------------|
Ab-------5------------------------------|
Db-5-5-5---5-5--2--2--2-4--4-4-4-4-4-2--|
Bb--------------------------------------|

(1:17)
Gb----------------------|
Db----------------------|
Ab----------------------|
Db------------7-----10--|
Bb----------------------|

Verse
Gb-------2---------------------------2-----------------|
Db----4-------------4-------------4--------------4-----|
Ab-2-------------2-----0-------2--------------2-----0--|
Db-----------------------------------------------------|
Bb-----------------------------------------------------|

Gb------------------------------------------------------|
Db------------------------------------------------------|
Ab-0--2--2h3-2--0--2--2h3-2---0--2--2h3-2--0--2--2h3-2--|
Db------------------------------------------------------|
Bb------------------------------------------------------|

Gb----------------------------------------------------|
Db----------------------------------------------------|
Ab-0--2--2h3-2--0--2--2h3--2--0--2--2h3-2--0--2--2h3--|
Db----------------------------------------------------|
Bb----------------------------------------------------|

Gb---------------------------------------|
Db---------------------------------------|
Ab---------------------------------------|
Db------------------------------0--2--2--|
Bb-0-0-0-----0--0-0---0-0-0--------------|

Chorus
Gb------------------------------------------------------------|
Db------------------------------------------------------------|
Ab-----------------5-------------------------4----------------|
Db-/9--7--5--5-5-5---5-5-5--0--0--0-4--4-4-4---4-4/9--7--7-5--|
Bb------------------------------------------------------------|

Gb-----------------------------------------|
Db-----------------------------------------|
Ab-------5---------------------------------|
Db-5-5-5---5-5--2--2--2-4--4-4-4-4-4-4-4/--|
Bb-----------------------------------------|

Gb------------------------------------------------------------|
Db------------------------------------------------------------|
Ab-----------------5-------------------------4----------------|
Db-/9--7--5--5-5-5---5-5-5--0--0--0-4--4-4-4---4-4/9--7--7-5--|
Bb------------------------------------------------------------|

Gb-----------------------------------------|
Db-----------------------------------------|
Ab-------5---------------------------------|
Db-5-5-5---5-5--2--2--2-4--4-4-4-4-4-2--0--|
Bb-----------------------------------------|

Bridge
Gb-----------------------------|
Db-----------------------------| x8
Ab-----------------------------|
Db-----------------------------|
Bb-0--0-0--0-0-0--0-0-0-0-1-1--|

Chorus
Gb------------------------------------------------------------|
Db------------------------------------------------------------|
Ab-----------------5-------------------------4----------------|
Db-/9--7--5--5-5-5---5-5-5--0--0--0-4--4-4-4---4-4/9--7--7-5--|
Bb------------------------------------------------------------|

Gb-----------------------------------------|
Db-----------------------------------------|
Ab-------5---------------------------------|
Db-5-5-5---5-5--2--2--2-4--4-4-4-4-4-4-4/--|
Bb-----------------------------------------|

Gb------------------------------------------------------------|
Db------------------------------------------------------------|
Ab-----------------5-------------------------4----------------|
Db-/9--7--5--5-5-5---5-5-5--0--0--0-4--4-4-4---4-4/9--7--7-5--|
Bb------------------------------------------------------------|

Gb--------------------------------------|
Db--------------------------------------|
Ab-------5------------------------------|
Db-5-5-5---5-5--2--2--2-4--4-4-4-4-4-2--|
Bb--------------------------------------|

Outro
Gb-------------------------------------------------------|
Db----10-----9-------9-10-----10-----9-------9-10--------| x4
Ab----------------12----------------------12---------10--|
Db-9------9-----9----------9------9-----9---------10-----|
Bb-------------------------------------------------------|



[You must be registered and logged in to see this image.]


Ravensclaw
Administrator
The Pioneer All Things Disturbed Joke!

12Believe Bass Tabs Empty Re: Believe Bass Tabs on Sat 07 Mar 2009, 16:54

Ravensclaw

Ravensclaw
Administrator
Darkness

Tuning-Bb,Db,Ab,Db,Gb

Intro (0:00)
Gb----------------------|
Db----------------------| x2
Ab----------------------|
Db-2-----5-----2-----5--|
Bb----------------------|

Gb----------------------|
Db----------------------| x2
Ab----------------------|
Db-2-----5-----2-----5--|
Bb----------------------|

Chorus
Gb----------------------|
Db----------------------| x3
Ab-3-----2--0-----------|
Db------------2---------|
Bb----------------------|

Gb----------------------|
Db----------0-0---------|
Ab-3-----3--------------|
Db----------------------|
Bb----------------------|

Gb----------------------|
Db----------------------| x2
Ab----------------------|
Db-2-----5-----2-----5--|
Bb----------------------|

Verse (1:18)
Carry me away...
Gb----------------------|
Db----------------------| x2
Ab----------------------|
Db-2-----5-----2-----5--|
Bb----------------------|

Chorus
Gb----------------------|
Db----------------------| x3
Ab-3-----2--0-----------|
Db------------2---------|
Bb----------------------|

Gb----------------------|
Db----------0-0---------|
Ab-3-----3--------------|
Db----------------------|
Bb----------------------|

Bridge
Gb----------------------|
Db----------------------| x4
Ab----------------------|
Db-2--------------------|
Bb-------0--------------|

Gb----------------------|
Db----------------------| x2
Ab----------------------|
Db-2-----5-----2-----5--|
Bb----------------------|

Gb----------------------|
Db----------------------|
Ab----------------------|
Db-2-----5-----2-----5--|
Bb----------------------|

Chorus
Gb----------------------|
Db----------------------| x3
Ab-3-----2--0-----------|
Db------------2---------|
Bb----------------------|

Gb----------------------|
Db----------0-0---------|
Ab-3-----3--------------|
Db----------------------|
Bb----------------------|

Outro
Gb----------------------|
Db----------------------| x2
Ab----------------------|
Db-2-----5-----2-----5--|
Bb----------------------|

Gb----------------------|
Db----------------------|
Ab----------------------|
Db-2~~------------------|
Bb----------------------|



[You must be registered and logged in to see this image.]


Ravensclaw
Administrator
The Pioneer All Things Disturbed Joke!

Sponsored content


View previous topic View next topic Back to top  Message [Page 1 of 1]

Permissions in this forum:
You cannot reply to topics in this forum

FacebookTwitterFacebookFacebook

 
  •  

Free forum | © PunBB | Free forum support | Contact | Report an abuse | Forumotion.com