You are not connected. Please login or register

View previous topic View next topic Go down  Message [Page 1 of 1]

1 Ten Thousand Fists Bass Tabs on Sat 07 Mar 2009, 16:24

CrowX

avatar
Administrator
TEN THOUSAND FISTS


Intro

|----------------------|-----------------|
|----------------------|-----------------|
|--9868-9868-98689868--|--9868-98689868--|
|----------------------|-----------------|
Repeat

Pre-Verse
"SURVIVAL!"
|----------------------|-----------------|
|----------------------|-----------------|
|----------------------|-----------------|
|--4303-4303-43034303--|--4303-43034303--|
Repeat
Verse
"ONE MORE GODDAMN DAY.."
|----------------------------------------------------------|
|----------------------------------------------------------|
|----------------------------------------------------------|
|--3-3-3-3-3-3/5-555-58444-4-4303-4303-43034303-4303-4303--|

Chorus
"EVil Can No LONGER COVER THEIR EYES.."
|-----------------------|------|
|-----------------------|------|
|------------------------------|
|--3-3-3/5-5-5/6-6-6/8--|-6-5--|



|-------------------------------|
|-------------------------------|
|-------------------------------|
|--5-5-5/7-7-7/8-8-8/10-|--7^---|

|------------------------------|
|------------------------------|
|------------------------------|
|--3-3-3/5-5-5/6-6-6/8--|-6-5--|

-----------------
-----------------
-----------------
---3-3-3/1-1-1---

"TEN THOUDAND FISTS IN THE AIR!"

|----------------|
|----------------|
|----------------|
|-10-8-6-5-1-5-3-|

Pre-Verse

Verse

Chorus

Interlude

|------------|------------------------|
|--8-7-8-10--|------------------------|
|------------|--00------00---00-------|
|------------|-------00---------00-0--|

Chorus

Pre-Verse

Outro

|-------------------------|----------------------------|
|------------------------------------------------------|
|--4303-4303-43034303-6-8-|-4303-4303-43034303-6-8-6-3-|
|------------------------------------------------------|



[You must be registered and logged in to see this link.]


CrowX
Administrator
View user profile

2 Re: Ten Thousand Fists Bass Tabs on Sat 07 Mar 2009, 16:25

CrowX

avatar
Administrator
JUST STOP



5-String Bass tuned in (Bb,Db,Ab,Db,Gb)
Moderately= 102bpm

Intro(0:09)(0:18)
Gb|-----------------------------|--------------------------------|
Db|-----------------------------|--------------------------------|
Ab|------------3h5----------5h6-|------------3h5-6p5-------------|
Db|-0-0--0-5h6-----0--0-5h6-----|-0-0--0-5h6---------6-5p3---3h5-|
Bb|-----------------------------|--------------------------0-----|

Gb|-----------------------------|--------------------------------|
Db|-----------------------------|--------------------------------|
Ab|------------3h5----------5h6-|------------3h5-6p5-------------|
Db|-0-0--0-5h6-----0--0-5h6-----|-0-0--0-5h6---------6-3h5---3h5-|
Bb|-----------------------------|--------------------------0-----|

Verse(0:28)(0:38)(1:18)(1:27)
Gb|------------------------------------------------------------|
Db|------------------------------------------------------------|
Ab|------------------------------------------------------------|
Db|-0-0--0-0-0-0-0--0--0-0-0-0-0--0-0--0-0-0-0-0-3--0-3--0-3s5-|
Bb|------------------------------------------------------------|

Gb|--------------------------------------------------------------|
Db|--------------------------------------------------------------|
Ab|--------------------------------------------------------------|
Db|-0-0--0-0-0-0-0--0--0-0-0-0-0--0-0--0-0-0-0-0-3--0-3--0-3s5s3-|
Bb|--------------------------------------------------------------|

Gb|------------------------------------------------------------|
Db|------------------------------------------------------------|
Ab|------------------------------------------------------------|
Db|-0-0--0-0-0-0-0--0--0-0-0-0-0--0-0--0-0-0-0-0-3--0-3--0-3s5-|
Bb|------------------------------------------------------------|

Gb|-----------------------------------------------------|
Db|-----------------------------------------------------|
Ab|-----------------------------------------------------|
Db|-0-0--0-0-0-0-0--0--0-0-0-0-0--0-0--0-0-0-0-0-8-7--3-|
Bb|-----------------------------------------------------|

Chorus(0:47)(1:36)(2:42)
Gb|---------------------|-----------------------|--------------------------|
Db|---------------------|-----------------------|--------------------------|
Ab|---------------------|-----------------------|--------------------------|
Db|-8--8-8-8--8--8--8-8-|-0--0-0--0---0--0--0-0-|-10--1010--10-101010-1010-|
Bb|---------------------|-----------------------|--------------------------|

Gb|----------------------|---------------------|-------------------|
Db|----------------------|---------------------|-------------------|
Ab|----------------------|---------------------|-------------------|
Db|-10-1010-10--1010-3-3-|-8--8-8-8--8--8--8-8-|-0--0-0-0-0--0-0-0-|
Bb|----------------------|---------------------|-------------------|

Gb|---------------------|-----------------------|
Db|---------------------|-----------------------|
Ab|---------------------|-------------------0-0-|
Db|---------------------|-10-10-10-10-10-10-----|
Bb|-1--1--1-1-1---1-1-1-|-----------------------|

Fill(1:06)
Gb|-----------------------------|--------------------------------|
Db|-----------------------------|--------------------------------|
Ab|------------3h5----------5h6-|------------3h5-6p5-------------|
Db|-0-0--0-5h6-----0--0-5h6-----|-0-0--0-5h6---------6-5p3---3h5-|
Bb|-----------------------------|--------------------------0-----|

Gb|-----------------------------|--------------------------------|
Db|-----------------------------|--------------------------------|
Ab|------------3h5----------5h6-|------------3h5-6p5-------------|
Db|-0-0--0-5h6-----0--0-5h6-----|-0-0--0-5h6---------6-3h5---3h5-|
Bb|-----------------------------|--------------------------0-----|

Gb|--------------|
Db|--------------|
Ab|--------------|
Db|-0--------12/-|
Bb|--------------|

Verse(0:28)(0:38)(1:18)(1:27)
Gb|------------------------------------------------------------|
Db|------------------------------------------------------------|
Ab|------------------------------------------------------------|
Db|-0-0--0-0-0-0-0--0--0-0-0-0-0--0-0--0-0-0-0-0-3--0-3--0-3s5-|
Bb|------------------------------------------------------------|

Gb|--------------------------------------------------------------|
Db|--------------------------------------------------------------|
Ab|--------------------------------------------------------------|
Db|-0-0--0-0-0-0-0--0--0-0-0-0-0--0-0--0-0-0-0-0-3--0-3--0-3s5s3-|
Bb|--------------------------------------------------------------|

Gb|------------------------------------------------------------|
Db|------------------------------------------------------------|
Ab|------------------------------------------------------------|
Db|-0-0--0-0-0-0-0--0--0-0-0-0-0--0-0--0-0-0-0-0-3--0-3--0-3s5-|
Bb|------------------------------------------------------------|

Gb|-----------------------------------------------------|
Db|-----------------------------------------------------|
Ab|-----------------------------------------------------|
Db|-0-0--0-0-0-0-0--0--0-0-0-0-0--0-0--0-0-0-0-0-8-7--3-|
Bb|-----------------------------------------------------|

Chorus(0:47)(1:36)(2:42)
Gb|---------------------|-----------------------|--------------------------|
Db|---------------------|-----------------------|--------------------------|
Ab|---------------------|-----------------------|--------------------------|
Db|-8--8-8-8--8--8--8-8-|-0--0-0--0---0--0--0-0-|-10--1010--10-101010-1010-|
Bb|---------------------|-----------------------|--------------------------|

Gb|----------------------|---------------------|-----------------------|
Db|----------------------|---------------------|-----------------------|
Ab|----------------------|---------------------|-----------------------|
Db|-10-10-101010--10-3-3-|-8--8-8-8--8--8--8-8-|-0--0-0--0---0--0--0-0-|
Bb|----------------------|---------------------|-----------------------|

Gb|--------------------------|----------------------|--------------------|
Db|--------------------------|---------------------0|--------------------|
Ab|--------------------------|----------------------|--------------------|
Db|-10--1010--10-101010-1010-|-10-10-101010--10-33-0|-8--88-8--8-8--8-10-|
Bb|--------------------------|----------------------|--------------------|

Gb|---------------|-------------------------|------------------------------|
Db|---------------|-------------------------|------------------------------|
Ab|---------------|-------------------------|---------15h17-----15h17------|
Db|-7-7777-777-10-|-5--5-5-5s17-17-17-17-17-|-15h17-17-----15h17-----15-17-|
Bb|---------------|-------------------------|------------------------------|

Interlube(2:14)
Gb|----|----|----------------------------------------|
Db|----|----|----------------------------------------|
Ab|----|----|----------------------------------------|
Db|-0--|----|-0-1-0-3-0-6-0-1-0-6--0-0-3-0-0-6-0-0-3-|
Bb|----|----|----------------------------------------|

Bridge(2:24)(2:33)
Gb|--------------------------------------|--------------------------------|
Db|--------------------------------------|--------------------------------|
Ab|--------------------------------------|--------------------------------|
Db|-0-1-0-3-0-6-0-1-0-6-0--3-0-0-6-0-3s6-|-0-1-0-3-0-6-0-1-0-6--003006003-|
Bb|--------------------------------------|--------------------------------|

Chorus(0:47)(1:36)(2:42)
Gb|---------------------|-----------------------|--------------------------|
Db|---------------------|-----------------------|--------------------------|
Ab|---------------------|-----------------------|--------------------------|
Db|-8--8-8-8--8--8--8-8-|-0--0-0--0---0--0--0-0-|-10--1010--10-101010-1010-|
Bb|---------------------|-----------------------|--------------------------|

Gb|----------------------|---------------------|-----------------------|
Db|----------------------|---------------------|-----------------------|
Ab|----------------------|---------------------|-----------------------|
Db|-10-10-101010--10-3-3-|-8--8-8-8--8--8--8-8-|-0--0-0--0---0--0--0-0-|
Bb|----------------------|---------------------|-----------------------|

Gb|--------------------------|----------------------|--------------------|
Db|--------------------------|---------------------0|--------------------|
Ab|--------------------------|----------------------|--------------------|
Db|-10--1010--10-101010-1010-|-10-10-101010--10-33-0|-8--88-8--8-8--8-10-|
Bb|--------------------------|----------------------|--------------------|

Gb|---------------|-------------------------|------------------------------|
Db|---------------|-------------------------|------------------------------|
Ab|---------------|-------------------------|---------15h17-----15h17------|
Db|-7-7777-777-10-|-5--5-5-5s17-17-17-17-17-|-15h17-17-----15h17-----15-17-|
Bb|---------------|-------------------------|------------------------------|

Outro(3:20)
Gb|-----------------------------|--------------------------------|
Db|-----------------------------|--------------------------------|
Ab|------------3h5----------5h6-|------------3h5-6p5-------------|
Db|-0-0--0-5h6-----0--0-5h6-----|-0-0--0-5h6---------6-5p3---3h5-|
Bb|-----------------------------|--------------------------0-----|

Gb|-----------------------------|--------------------------------|
Db|-----------------------------|--------------------------------|
Ab|------------3h5----------5h6-|------------3h5-6p5-------------|
Db|-0-0--0-5h6-----0--0-5h6-----|-0-0--0-5h6---------6-3h5---3h5-|
Bb|-----------------------------|--------------------------0-----|

Gb|-----------------------------|--------------------------------|
Db|-----------------------------|--------------------------------|
Ab|------------3h5----------5h6-|------------3h5-6p5-------------|
Db|-0-0--0-5h6-----0--0-5h6-----|-0-0--0-5h6---------6-5p3---3h5-|
Bb|-----------------------------|--------------------------0-----|

Gb|-----------------------------|--------------------------------|
Db|-----------------------------|--------------------------------|
Ab|------------3h5----------5h6-|------------3h5-6p5-------------|
Db|-0-0--0-5h6-----0--0-5h6-----|-0-0--0-5h6---------6-5s3-0-3h5-|
Bb|-----------------------------|--------------------------------|

Gb|---------------------------------|----|
Db|---------------------------------|----|
Ab|-----------------6p5-------------|----|
Db|-0-5p3-0-3-0-3h5-----6-5s3-0-3h5-|-0--|
Bb|---------------------------------|----|



[You must be registered and logged in to see this link.]


CrowX
Administrator
View user profile

3 Re: Ten Thousand Fists Bass Tabs on Sat 07 Mar 2009, 16:25

CrowX

avatar
Administrator
GUARDED



Band- Disturbed
Song- Guarded
Tuning- Drop Db

riff 1 (intro)
Gb|---------------------------------------------------|
Db|---------------------------------------------------|
Ab|----3-5---------3-5-----3-5----3-5---------1-----6-|
Db|-0------0-0-0-0-----0-0-----0------0-0-0-0---0-0---|

Gb|-------------------------------------------------------|
Db|-------------------------------------------------------|
Ab|----3-5---------3-5-----3-5----3-5---------------------|
Db|-0------0-0-0-0-----0-0-----0------0-0-0-0-6-6-6-6-6-6-|

riff 2 (verse)
Gb|----------------------------------|
Db|----------------------------------|
Ab|----------------------------------|
Db|-0-----3-----0-----3----0h8--8--8-| x4


riff 3 (pre-chorus)
Gb|---------------------------------------------------------------------|
Db|---------------------------------------------------------------------|
Ab|---------------------------------------------------------------------|
Db|-3-6-5---5-3-6-5-x-x-3-x-x-3-x-x-3-x-x-3-3-6-5---5-3-6-5-x-x-3-x-x-3-|

riff 4 (chorus)
Gb|--------------------------------------------------|
Db|--------------------------------------------------|
Ab|--------------------------------------------------|
Db|-0------1------3------0------1------3-x-----------|


Gb|----------------------|
Db|----------------------|
Ab|----------------------|
Db|-0--------0-------15--|

riff 6 (bridge)
Gb|---------------------------------------------------------------------|
Db|---------------------------------------------------------------------|
Ab|---------------------------------------------------------------------|
Db|-0----0-0-0-0---0---0-0-0-0-8-8-7-0----0-0-0-0---0---0-0-0-0-10-10-7-|

Gb|----------------------------------|
Db|----------------------------------|
Ab|----------------------------------|
Db|-0----0-0-0-0---0---0-0-0-0-8-8-7-3-3-3-3-3-3-3-3-2-2-2-2-8/10-8/10-8/10-|


Guitar Break


riff 6 (break down)
Gb|-------------------------------------------------------|
Db|-------------------------------------------------------|
Ab|-------------------------------------------------------|
Db|-0--3-5-0-0-0-0-3-5-0-0-3-5-0--3-5-0-0-0-0-3-5-0-0-3-5-|

Gb|-------------------------------------------------------|
Db|-------------------------------------------------------|
Ab|-------------------------------------------------------|
Db|-0--3-5-0-0-0-0-3-5-0-0-3-5-0--3-5-0-0-0-0-6-6-6-6-6-6-|

riff 7 (outro)
Gb|--------------------------------------------------------------------|
Db|--------------------------------------------------------------------|
Ab|--------------------------------------------------------------------|
Db|-0----0-0-0-0---0---0-0-0-0-8-8-7-0----0-0-0-0---0---0-0-0-0-8-8-7--|


Gb|--------------------------------------------------------------------|
Db|--------------------------------------------------------------------|
Ab|-------------------------------------------------------------1-1-1--|
Db|-0----0-0-0-0---0---0-0-0-0-8-8-7-0----0-0-0-0---0---0-0-0-0--------|



[You must be registered and logged in to see this link.]


CrowX
Administrator
View user profile

4 Re: Ten Thousand Fists Bass Tabs on Sat 07 Mar 2009, 16:26

CrowX

avatar
Administrator
DEIFY

Tuning: cadg

0:16

Intro
G|-------------------------------------------------------------|
D|-------------------------------------------------------------|
A|-11-11-11-11-------------------------------------------------|
C|-----------------555533-33-33-33-115533-33-33-33-------------|

-----------------------------------|
-----------------------------------|
-----------------------------------| x2
3333-11-11-00-00-5555--------------|

(Break)

Verse
G|------------------------------------------------------------------------|
D|------------------------------------------------------------------------|
A|1111112222--------------------1111112222--------------------------------| x4
C|---------------5555111188886----------------5555111188886---------------|


Pre-Chorus
G|------------------------------------|
D|------------------------------------|
A|------------------------------------| x4
C|666666888888555566666685|


Chorus
G|-------------------------------------------------------------|
D|-------------------------------------------------------------|
A|-11-11-11-11-------------------------------------------------|
C|-----------------555533-33-33-33-115533-33-33-33-------------|

----------------------------------|
----------------------------------|
----------------------------------| x2
3333-11-11-00-00-5555-------------|

G|------------------------|
D|------------------------|
A|-01112101-0112101| x2
C|------------------------|


Verse
G|------------------------------------------------------------------------|
D|------------------------------------------------------------------------|
A|1111112222--------------------1111112222--------------------------------| x4
C|---------------5555111188886----------------5555111188886---------------|


Pre-Chorus
G|------------------------------------|
D|------------------------------------|
A|------------------------------------| x4
C|666666888888555566666685|


Chorus
G|-------------------------------------------------------------|
D|-------------------------------------------------------------|
A|-11-11-11-11-------------------------------------------------|
C|-----------------555533-33-33-33-115533-33-33-33-------------|

----------------------------------|
----------------------------------|
----------------------------------| x2
3333-11-11-00-00-5555-------------|


(Break)


G|--------------------------------------------------------------------|
D|--------------------------------------------------------------------|
A|111111111111111144p3h4p3h4p3h4--------------------------------------|
C|---------------------------------------------88p7h8p7h8p7h8---------|

G|------------|
D|------------|
A|11111111| x6
C|------------|

G|--------------------------------------------|
D|--------------------------------------------|
A|44p3h4p3h4p3h4------------------------------|
C|---------------------88p7h8p7h8p7h8---------|


^^^
Play those two sections together 3x

Chorus
G|-------------------------------------------------------------|
D|-------------------------------------------------------------|
A|-11-11-11-11-------------------------------------------------|
C|-----------------555533-33-33-33-115533-33-33-33-------------|

-----------------------------------|
-----------------------------------|
-----------------------------------| x1
3333-11-11-00-00-5555--------------|


(Drum part)

Bridge
G|------------------------------------------------------------------------|
D|------------------------------------------------------------------------|
A|11-11-11-11-------------------------------------------------------------|
C|---------------5\1-33-33-33-33-115533-33-33-33-3-3-1--------------------|

Chorus
G|-------------------------------------------------------------|
D|-------------------------------------------------------------|
A|-11-11-11-11-------------------------------------------------|
C|-----------------555533-33-33-33-115533-33-33-33-------------|

-----------------------------------|
-----------------------------------|
-----------------------------------| x2
3333-11-11-00-00-5555--------------|

G|------------------------|
D|------------------------|
A|-01112101-0112101| x4
C|------------------------|



[You must be registered and logged in to see this link.]


CrowX
Administrator
View user profile

5 Re: Ten Thousand Fists Bass Tabs on Sat 07 Mar 2009, 16:29

CrowX

avatar
Administrator
STRICKEN

WILL FIND SOON



[You must be registered and logged in to see this link.]


CrowX
Administrator
View user profile

6 Re: Ten Thousand Fists Bass Tabs on Sat 07 Mar 2009, 16:30

CrowX

avatar
Administrator
I'M ALIVE

WILL FIND SOON



[You must be registered and logged in to see this link.]


CrowX
Administrator
View user profile

7 Re: Ten Thousand Fists Bass Tabs on Sat 07 Mar 2009, 16:30

CrowX

avatar
Administrator
SONS OF PLUNDER

WILL FIND SOON



[You must be registered and logged in to see this link.]


CrowX
Administrator
View user profile

8 Re: Ten Thousand Fists Bass Tabs on Sat 07 Mar 2009, 16:30

CrowX

avatar
Administrator
OVERBURDENED

Tuning- Drop C

Alright here's the cool bass intro everybody wants.It may need a few fixes but it's
sounds good to me.It's a lot like the Metallica My Friend Of Misery bass.

Intro
|-10------10--10----10-14------12------10----|
|----12----------12-------12------12------12-|
|-------0--------------------0-------0-------|
|--------------------------------------------|
|--------------------------------------------|

|-9------9--9---------------------------|
|---10--------10---9------9------9------|
|------0---------0---10-----10-----10---|
|-----------------------0------0------0-|
|---------------------------------------|

|--9~~~~~~~~~~~~~~-|
|-10~~~~~~~~~~~~~~-|
|--0~~~~~~~~~~~~~~-|
|------------------|
|------------------|

Verse
|-------------------------------------------------------------|
|---14---12---15---15---17---15-----14---12---10---10---9---9-|
|-0----0----0----0----0----0----0-0----0----0----0----0---0---|
|-------------------------------------------------------------|
|-------------------------------------------------------------|

|-------------------------------------------------------|
|---14---12---15---15---17---15-------------------------|
|-0----0----0----0----0----0----------------------------|
|-------------------------------9-9-9-9-9-9-6-6-6-6-6-6-|
|-------------------------------------------------------|

Pre-Chorus
|------------------------------------------------------|
|------------------------------------------------------|
|------------------------------------------------------|
|-8-8-8-8-8-8--8-8-8-8-8-8--5-5-5-5-5-5-5--5-5-5-5-5-5-|x2
|------------------------------------------------------|

|-----------|
|-----------|
|-----------|
|-0-0-3-0-2-|
|-----------|

Chorus
|--------------------------------|
|--------------------------------|
|--------------------------------|
|-0-0-6-0-3-3-0-3-5--6-0-3-5-5-3-|
|--------------------------------|

|---------------------------------------------|
|---------------------------------------------|
|---------------------------------------------|
|-0-0-6-0-3-3-0-3-5-6-6-6-6-6-6-9-9-9-9-3-3-3-|
|---------------------------------------------|

Play Verse

Play Pre-Chorus

Play Chorus

Build up
|-------------------------|
|-------------------------|
|-------------------------|
|-0-0-0-0-0-0-0-0-0-0-0-0-|
|-------------------------|


Bridge
|------------------------------------------------|
|------------------------------------------------|
|--------------------------------------7-7-7-7-7-|
|-7-7-7-7-7-9-9-9-10-10-10-0-3-3-3-3-3-----------|
|------------------------------------------------|

|-----------------------------------------|
|-----------------------------------------|
|-----------------------------------------|
|-5-7-7-7-7-5-5-5-5-5-7-7-7-7-7-5-5-5-5-5-|
|-----------------------------------------|

Play Chorus

Ending
|---16---14---17---17---19---17---16---14---12---12---11---11----|
|---14---12---15---15---17---15---14---12---10---10---9----9-----|
|-0----0----0----0----0----0----0----0----0----0----0----0----0~-|
|----------------------------------------------------------------|
|----------------------------------------------------------------|



Last edited by CrowX on Sat 07 Mar 2009, 16:35; edited 1 time in total



[You must be registered and logged in to see this link.]


CrowX
Administrator
View user profile

9 Re: Ten Thousand Fists Bass Tabs on Sat 07 Mar 2009, 16:31

CrowX

avatar
Administrator
FORGIVEN

WILL FIND SOON



[You must be registered and logged in to see this link.]


CrowX
Administrator
View user profile

10 Re: Ten Thousand Fists Bass Tabs on Sat 07 Mar 2009, 16:31

CrowX

avatar
Administrator
LAND OF CONFUSION

00:01
Intro
G|-------|
D|---6---|
Ab|070-070| x8
Db|-------|

00:17
Verse
G|-------------------------------------------------------------|
D|-------------------------------------------------------------|
Ab|777-77-77-7-77-7777-77-77-7-77-7-000-00-00-0-00-0000-00-00-0-|
Db|-------------------------------------------------------------|

G|-------------------------------------------------------------|
D|-------------------------------------------------------------|
Ab|00-0-333-33-33-3-33-3333-33-33-3-33-5-777-77-77-7-77-7777-77-|
Db|-------------------------------------------------------------|

G|---------|
D|---------|
Ab|77-7-77-7| x2
Db|---------|

00:51
Chorus
G|---------------------------------------|
D|---------------------------------------|
Ab|---------------------------------------| x2
Db|000-22222-555-77777-000-22222-555-00000|

1:07
After Chorus
G|------------------------------|
D|------------------------------|
Ab|777-77-77-7-77-7777-77-77-22-5| x4
Db|------------------------------|

G|-------|
D|---6---|
Ab|070-070| x4
Db|-------|

1:33
Verse
G|-------------------------------------------------------------|
D|-------------------------------------------------------------|
Ab|777-77-77-7-77-7777-77-77-7-77-7-000-00-00-0-00-0000-00-00-0-|
Db|-------------------------------------------------------------|

G|-------------------------------------------------------------|
D|-------------------------------------------------------------|
Ab|00-0-333-33-33-3-33-3333-33-33-3-33-5-777-77-77-7-77-7777-77-|
Db|-------------------------------------------------------------|

G|---------|
D|---------|
Ab|77-7-77-7|
Db|---------|

1:50
Chorus
G|---------------------------------------|
D|---------------------------------------|
Ab|---------------------------------------| x2
Db|000-22222-555-77777-000-22222-555-00000|

2:06
After Chorus
G|------------------------------|
D|------------------------------|
Ab|777-77-77-7-77-7777-77-77-22-5| x4
Db|------------------------------|

G|-------|
D|---6---|
Ab|070-070| x4
Db|-------|

2:31
Bridge
G|--------------------------------------------------------------|
D|--------------------------------------------------------------|
Ab|444-402444-4-402---------------------------------------2222-1-|
Db|-----------------777-735777-7-735777-333-302333-3-3023--------|

G|--------------|
D|--------------|
Ab|111-----------|
Db|----6666-4-4-4|

G|--------------------------------------------------------------|
D|--------------------------------------------------------------|
Ab|444-402444-4-402---------------------------------------2222-1-|
Db|-----------------777-735777-7-735777-333-302333-3-3023--------|

G|------------------------------|:---------------------------:|
D|---------3333-0000000000000000|:33-3-33-33--33-3-33-333-333:|
Ab|111-4444----------------------|:---------------------------:| x4
Db|------------------------------|:---------------------------:|

G|-----------------|
D|-----------------|
Ab|57777777777777777|
Db|-----------------|

3:30
Verse
G|-------------------------------------------------------------|
D|-------------------------------------------------------------|
Ab|777-77-77-7-77-7777-77-77-7-77-7-000-00-00-0-00-0000-00-00-0-|
Db|-------------------------------------------------------------|

G|-------------------------------------------------------------|
D|-------------------------------------------------------------|
Ab|00-0-333-33-33-3-33-3333-33-33-3-33-5-777-77-77-7-77-7777-77-|
Db|-------------------------------------------------------------|

G|---------|
D|---------|
Ab|77-7-77-7|
Db|---------|

3:46
Chorus
G|---------------------------------------|
D|---------------------------------------|
Ab|---------------------------------------| x2
Db|000-22222-555-77777-000-22222-555-00000|

4:03
After Chorus
G|------------------------------|
D|------------------------------|
Ab|777-77-77-7-77-7777-77-77-22-5| x8
Db|------------------------------|

G|-------|
D|---6---|
Ab|070-070| x4
Db|-------|



[You must be registered and logged in to see this link.]


CrowX
Administrator
View user profile

11 Re: Ten Thousand Fists Bass Tabs on Sat 07 Mar 2009, 16:32

CrowX

avatar
Administrator
SACRED LIE

-Tuning is: Drop C (All strings 1 step down, 2nd string an extra step on top of that)

-5 String Bass-
------A C G C F (low to high)------

Tabbed By: Jay Logan
Email: Subbliminal@DONTSPAM@hotmail.com
-Just remove the 'DONTSPAM of course.


Legend - I suggest looking over it, there are some descriptions, as well as special
cases.

/ - Slide Right (If only 1 number just slide from anywhere towards it left to right)
\ - Slide left (If only 1 number just slide from anywhere towards it right to left)
^ - Bend (5^7= bend the 5 fret until it sounds like 7, or 5^ = quick bend)
(~) - Vibrato (5(~) = Wiggle the string shown)
(5) - Natural Harmonic (Just put your finger lightly over the actually fret)
<5> - Artificial Harmonic (You pick the string and let your thumb touch as well while
holding the fret shown)
x - Mute that string
. - Palm Mute (Mute the note shown with picking hand palm, the '.' is under the note)
h - Hammer On (ie..3h5 = pic the 3rd fret and then hammer your finger into the 5th
without picking)
p - Pull Off (opposite of hammer on, 5p3 = pic the 5th while holding the 3rd as well,
then pull your finger of the 5th)


Duration Legend
---------------
W - whole
H - half
Q - quarter
E - 8th
S - 16th
T - 32nd
X - 64th
. - note dotted
|-n-| - n-tuplets


F|
C|
G|
C|
A|

Time: 4/4
Bpm: 108


---Intro---


W E E Q. E Q
F|---------------------|-----------------------|
C|---------------------|-----------------------|
G|---------------------|-----------------------|
C|---------------------|--0--0---------0-------|
A|---------------------|-----------------------|



E E H. E E Q. E Q
F|---------------------|-----------------------|
C|---------------------|-----------------------|
G|---------------------|-----------------------|
C|--0--0---------------|--0--0-----------------|
A|---------------------|---------------1-------|



---Intro Part 2---


E E E S S E E S S S S S S E E S S E E S S S S
F|-----------------------------|--------------------------------|
C|-----------------------------|--------------------------------|
G|-----------------------------|--------------------------------|
C|--0--0--0--0-0-0--0--0-0-0-0-|--0-0-0--0--0-0-0---6---0-0-6-6-|
A|-----------------------------|--------------------------------|



E E E S S E E S S S S S S E E S S S S S S S S S S
F|-----------------------------|--------------------------------|
C|-----------------------------|--------------------------------|
G|-----------------------------|--------------------------------|
C|--0--0--0--0-0-0--0--0-0-0-0-|--0-0-0--0--0-0-0-0-3-5---0-3-5-|
A|-----------------------------|------------------------3-------|



E E E S S E E S S S S S S E E S S E E S S S S
F|-----------------------------|--------------------------------|
C|-----------------------------|--------------------------------|
G|-----------------------------|--------------------------------|
C|--0--0--0--0-0-0--0--0-0-0-0-|--0-0-0--0--0-0-0---6---0-0-6-6-|
A|-----------------------------|--------------------------------|



E E E S S E E S S S S S S E E S S S S S S S S S S
F|-----------------------------|--------------------------------|
C|-----------------------------|--------------------------------|
G|-----------------------------|--------------------------------|
C|--0--0--0--0-0-0--0--0-0-0-0-|--0-0-0--0--0-0-0-0-3-5---0-3-5-|
A|-----------------------------|------------------------3-------|





---Verse---


E S S S S E S S S S S S S S E S S S S E H
F|--------------------------------|------------------------------|
C|--------------------------------|------------------------------|
G|--------------------------------|------------------------------|
C|--------------------------------|------------------------------|
A|--3--3-4-3-1-3--1-1---1-1---3-4-|--3--3-4-3-1-3----------------|



E S S S S E S S S S S S S S E S S S S E E S S S S E
F|--------------------------------|------------------------------|
C|--------------------------------|------------------------------|
G|--------------------------------|------------------------------|
C|--------------------------------|----------------1--1-1-1-1-1--|
A|--3--3-4-3-1-3--1-1---1-1---3-4-|--3--3-4-3-1-3----------------|



E S S S S E S S S S S S S S E S S S S E H
F|--------------------------------|------------------------------|
C|--------------------------------|------------------------------|
G|--------------------------------|------------------------------|
C|--------------------------------|------------------------------|
A|--3--3-4-3-1-3--1-1---1-1---3-4-|--3--3-4-3-1-3----------------|



E S S S S E S S S S S S S S E S S S S E E S S S S E
F|--------------------------------|------------------------------|
C|--------------------------------|------------------------------|
G|--------------------------------|------------------------------|
C|--------------------------------|----------------1--1-1-1-1-1--|
A|--3--3-4-3-1-3--1-1---1-1---3-4-|--3--3-4-3-1-3----------------|





---Chorus---


Q E. S S S E. E. Q E. S S S E. E.
F|-------------------------|---------------------------|
C|-------------------------|---------------------------|
G|-----------------0---0---|--1----1---1-1-1-----------|
C|-------------------------|-----------------3---2-----|
A|--3----3---3-3-3---------|---------------------------|


Q E. S S S E. E. Q E. S S S E. E.
F|-------------------------|---------------------------|
C|-------------------------|---------------------5-----|
G|-----------------0---0---|--1----1---1-1-1-----------|
C|-------------------------|-----------------3---------|
A|--3----3---3-3-3---------|---------------------------|


Q E. S S S E. E. Q E. S S S E. E.
F|-------------------------|---------------------------|
C|-------------------------|---------------------------|
G|-----------------0---0---|--1----1---1-1-1-----------|
C|-------------------------|-----------------3---2-----|
A|--3----3---3-3-3---------|---------------------------|


E E E E E E E E E E E E E E E E
F|--------------------------|--------------------------|
C|--------------------------|--------------------------|
G|--3-----3-----3-----3-----|--1-----1-----1-----1-----|
C|-----5-----5-----5-----5--|-----3-----3-----3-----3--|
A|--------------------------|--------------------------|





Post Chorus Riff (The intro)


E E E S S E E S S S S S S E E S S E E S S S S
F|-----------------------------|--------------------------------|
C|-----------------------------|--------------------------------|
G|-----------------------------|--------------------------------|
C|--0--0--0--0-0-0--0--0-0-0-0-|--0-0-0--0--0-0-0---6---0-0-6-6-|
A|-----------------------------|--------------------------------|



E E E S S E E S S S S S S E E S S H
F|-----------------------------|--------------------------------|
C|-----------------------------|--------------------------------|
G|-----------------------------|--------------------------------|
C|--0--0--0--0-0-0--0--0-0-0-0-|--0-0-0--0--0-0-----------------|
A|-----------------------------|--------------------------------|






---Verse---


E S S S S E S S S S S S S S E S S S S E H
F|--------------------------------|------------------------------|
C|--------------------------------|------------------------------|
G|--------------------------------|------------------------------|
C|--------------------------------|------------------------------|
A|--3--3-4-3-1-3--1-1---1-1---3-4-|--3--3-4-3-1-3----------------|



E S S S S E S S S S S S S S E S S S S E E S S S S E
F|--------------------------------|------------------------------|
C|--------------------------------|------------------------------|
G|--------------------------------|------------------------------|
C|--------------------------------|----------------1--1-1-1-1-1--|
A|--3--3-4-3-1-3--1-1---1-1---3-4-|--3--3-4-3-1-3----------------|



E S S S S E S S S S S S S S E S S S S E H
F|--------------------------------|------------------------------|
C|--------------------------------|------------------------------|
G|--------------------------------|------------------------------|
C|--------------------------------|------------------------------|
A|--3--3-4-3-1-3--1-1---1-1---3-4-|--3--3-4-3-1-3----------------|



E S S S S E S S S S S S S S E S S S S E E S S S S E
F|--------------------------------|------------------------------|
C|--------------------------------|------------------------------|
G|--------------------------------|------------------------------|
C|--------------------------------|----------------1--1-1-1-1-1--|
A|--3--3-4-3-1-3--1-1---1-1---3-4-|--3--3-4-3-1-3----------------|





---Chorus---


Q E. S S S E. E. Q E. S S S E. E.
F|-------------------------|---------------------------|
C|-------------------------|---------------------------|
G|-----------------0---0---|--1----1---1-1-1-----------|
C|-------------------------|-----------------3---2-----|
A|--3----3---3-3-3---------|---------------------------|


Q E. S S S E. E. Q E. S S S E. E.
F|-------------------------|---------------------------|
C|-------------------------|---------------------5-----|
G|-----------------0---0---|--1----1---1-1-1-----------|
C|-------------------------|-----------------3---------|
A|--3----3---3-3-3---------|---------------------------|


Q E. S S S E. E. Q E. S S S E. E.
F|-------------------------|---------------------------|
C|-------------------------|---------------------------|
G|-----------------0---0---|--1----1---1-1-1-----------|
C|-------------------------|-----------------3---2-----|
A|--3----3---3-3-3---------|---------------------------|


E E E E E E E E E E E E E E E E
F|--------------------------|--------------------------|
C|--------------------------|--------------------------|
G|--3-----3-----3-----3-----|--1-----1-----1-----1-----|
C|-----5-----5-----5-----5--|-----3-----3-----3-----3--|
A|--------------------------|--------------------------|






---Breakdown---
*NOTE: Repeat as needed


E E E S S E E S S S S S S E E S S E E S S S S
F|-----------------------------|-----------------------------------|
C|-----------------------------|-----------------------------------|
G|-----------------------------|-----------------------------------|
C|--0--0--0--0-0-0--0--0-0-0-0-|--0-0-0--0--0-0-0---6---0-0-6-6----|
A|-----------------------------|-----------------------------------|



S S S E. S S S S E S S S S S S S S S S S S S S S S S S S S
F|-------------------------------|---------------------------------|
C|-------------------------------|---------------------------------|
G|-------------------------------|---------------------------------|*
C|-------------------------------|---------------------------------|
A|--3-4-3-----3-4-3-1----1-3-3---|-3-4-3-3-3-1-3-4-3-3-1-3-3-3-3-3-|


Last Time Through


S S S E. S S S S E S S S S S S S S S S S S S S S S S E.
F|-------------------------------|---------------------------------|
C|-------------------------------|---------------------------------|
G|-------------------------------|---------------------------------|
C|-------------------------------|---------------------------------|
A|--3-4-3-----3-4-3-1----1-3-3---|-3-4-3-3-3-1-3-4-3-3-1-3-3-------|




---Chorus---



Q E. S S S E. E. Q E. S S S E. E.
F|-------------------------|---------------------------|
C|-------------------------|---------------------------|
G|-----------------0---0---|--1----1---1-1-1-----------|
C|-------------------------|-----------------3---2-----|
A|--3----3---3-3-3---------|---------------------------|


Q E. S S S E. E. Q E. S S S E. E.
F|-------------------------|---------------------------|
C|-------------------------|---------------------5-----|
G|-----------------0---0---|--1----1---1-1-1-----------|
C|-------------------------|-----------------3---------|
A|--3----3---3-3-3---------|---------------------------|


Q E. S S S E. E. Q E. S S S E. E.
F|-------------------------|---------------------------|
C|-------------------------|---------------------------|
G|-----------------0---0---|--1----1---1-1-1-----------|
C|-------------------------|-----------------3---2-----|
A|--3----3---3-3-3---------|---------------------------|


E E E E E E E E E E E E E E E E
F|--------------------------|--------------------------|
C|--------------------------|--------------------------|
G|--3-----3-----3-----3-----|--1-----1-----1-----1-----|
C|-----5-----5-----5-----5--|-----3-----3-----3-----3--|
A|--------------------------|--------------------------|


Q E S S S S E. E. Q E S S S S E. E.
F|-------------------------|---------------------------|
C|-------------------------|---------------------------|
G|-----------------0---0---|--1---1--1-1-1-1-----------|
C|-------------------------|-----------------3---2-----|
A|--3---3--3-3-3-3---------|---------------------------|


Q E S S S S E. E. Q E S S S S E. E.
F|-------------------------|---------------------------|
C|-------------------------|---------------------5-----|
G|-----------------0---0---|--1---1--1-1-1-1-----------|
C|-------------------------|-----------------3---------|
A|--3---3--3-3-3-3---------|---------------------------|


Q E S S S S E. E. Q E S S S S E. E.
F|-------------------------|---------------------------|
C|-------------------------|---------------------------|
G|-----------------0---0---|--1---1--1-1-1-1-----------|
C|-------------------------|-----------------3---2-----|
A|--3---3--3-3-3-3---------|---------------------------|


E E E E E E E E E E E E E E E E
F|--------------------------|--------------------------|
C|--------------------------|--------------------------|
G|--3-----3-----3-----3-----|--1-----1-----1-----1-----|
C|-----5-----5-----5-----5--|-----3-----3-----3-----3--|
A|--------------------------|--------------------------|



---Outro---


E E E S S E E S S S S E E E S S E E S S S S
-----------------------------|-----------------------------|
-----------------------------|-----------------------------|
-----------------------------|-----------------------------|
--0--0--0--0-0-0--0--0-0-0-0-|--0--0--0--0-0-0--0--0-0-0-0-|
-----------------------------|-----------------------------|


E E E S S E E S S S S E E E S S H
-----------------------------|------------------------||
-----------------------------|------------------------||
-----------------------------|------------------------||
--0--0--0--0-0-0--0--0-0-0-0-|--0--0--0--0-0----------||
-----------------------------|------------------------||



[You must be registered and logged in to see this link.]


CrowX
Administrator
View user profile

12 Re: Ten Thousand Fists Bass Tabs on Sat 07 Mar 2009, 16:33

CrowX

avatar
Administrator
PAIN REDEFINED


Tuning: D A D G

Intro [x5]
G|--------------------------------------------||
D|-------------------------------------------.||
A|------------------0-----1---------------0--.||
D|-444-2--444-0--44----44----4444-5--4444-----||

Verse [x2]
G|----------------||-----------------|---------------|
D|---------------.||-----------------|---------------|
A|---------------.||-----------------|---------------|
D|-4-4-44-4-44444-||-00--00-0--00000-|-2-2-22-2-5555-|

Pre-Chorus
G|--------------------------------------------------------------------||
D|-------------------------------------------------------------------.||
A|----------------------------------------2h3---------------------00-.||
D|-444-4-4-4-4-4h5p4--6h7-4-4-4-44-4h5p4------4-4-4-44-4h5p4-2222-----||

Chorus [x3]
G||--------------------------------||-----------------------------|
D||.------------------------------.||-----------------------------|
A||.----------0---------4-4-------.||-2-2-2-2-2-2-2-2-4-4-4-4-----|
D||---4-4-4-2---0-0-0-0-----3-3-3--||-------------------------2-2-|

Pre-Verse [x2]
G|--------------------------------------------||
D|-------------------------------------------.||
A|------------------0-----1---------------0--.||
D|-444-2--444-0--44----44----4444-5--4444-----||

Verse [x2]
G|----------------||-----------------|---------------|
D|---------------.||-----------------|---------------|
A|---------------.||-----------------|---------------|
D|-4-4-44-4-44444-||-00--00-0--00000-|-2-2-22-2-5555-|

Pre-Chorus
G|--------------------------------------------------------------------||
D|-------------------------------------------------------------------.||
A|----------------------------------------2h3---------------------00-.||
D|-444-4-4-4-4-4h5p4--6h7-4-4-4-44-4h5p4------4-4-4-44-4h5p4-2222-----||

Chorus [x3]
G||--------------------------------||-----------------------------|
D||.------------------------------.||-----------------------------|
A||.----------0---------4-4-------.||-2-2-2-2-2-2-2-2-4-4-4-4-----|
D||---4-4-4-2---0-0-0-0-----3-3-3--||-------------------------2-2-|

Bridge
G|---|--------------------|-----------4-------|----------------------------|
D|---|--4--6--7---3--4--6-|--4--6--7-----7----|-4--6--7---3--4--6-7\2------|
A|---|--------------------|-----------------5-|----------------------------|
D|-4-|--------------------|-------------------|----------------------------|
[x8]
G|-----------4--2-||-----------------------------------------||-----------||
D|----------------||.---------------------------------------.||.---------.||
A|-0-2-2-2-2------||.---------------------------------------.||.---------.||
D|----------------||-4444-4444-3333-3333-4444-4444-3333-3333-||-444-333---||

Chorus [x3]
G||--------------------------------||-----------------------------|
D||.------------------------------.||-----------------------------|
A||.----------0---------4-4-------.||-2-2-2-2-2-2-2-2-4-4-4-4-----|
D||---4-4-4-2---0-0-0-0-----3-3-3--||-------------------------2-2-|

Outro [x4]
G|--------------------------------------------||
D|-------------------------------------------.||
A|------------------0-----1---------------0--.||
D|-444-2--444-0--44----44----4444-5--4444-----||



[You must be registered and logged in to see this link.]


CrowX
Administrator
View user profile

13 Re: Ten Thousand Fists Bass Tabs on Sat 07 Mar 2009, 16:33

CrowX

avatar
Administrator
AVARICE

WILL FIND SOON



[You must be registered and logged in to see this link.]


CrowX
Administrator
View user profile

14 Re: Ten Thousand Fists Bass Tabs on Sat 07 Mar 2009, 16:35

CrowX

avatar
Administrator
DECADENCE

intro after guitar intro

|-----------------------------------|-----------------------------------|
|-----------------------------------|-----------------------------------|
|---------------5--------3-------2--|---------------5--------3-------5--|
|--3-2-0-2-0-2-----2-0-2---2-0-2----|--3-2-0-2-0-2-----2-0-2---2-0-2----| x4

verse


|--------------------------------|-------------------------------|
|--------------------------------|-------------------------------|
|--------------------------------|-------------------------------|
|--222-0-2-0-2-222-0-2-0-2-3-2-0-|-222-0-2-0-2-222-0-2-0-2-3-2-0-|

|--------------------------------|-------------------------------|
|--------------------------------|-------------------------------|
|--------------------------------|-------------5-------3-------5-|
|--222-0-2-0-2-222-0-2-0-2-3-2-0-|-222-0-2-0-2---2-0-2---2-0-2-5-|

chorus
x3
|------------------------|-------------------------------------|
|------------------------|-------------------------------------|
|-----------3--3--3------|-------------------3-3-3-3-3---------|
|--2--2--2-----------4-4-|--2--2--2--0-0-0---------------------|


Post-chorus

|-----------------------------------|-----------------------------------|
|-----------------------------------|-----------------------------------|
|---------------5--------3-------2--|---------------5--------3-------5--|
|--3-2-0-2-0-2-----2-0-2---2-0-2----|--3-2-0-2-0-2-----2-0-2---2-0-2----|x2

Verse x2

chorus

bridge

|-------------------------------------------------|
|-------------------------------------------------|
|-------------------------------------------------|
|--14\2-3-2-x-2-3-2-2-2-14\2-3-2-7-8-7-x-3-3------| x4

|-------------------------------------------------|
|-------------------------------------------------|
|-------------------------------------------------|
|--14\2-3-2-x-2-3-2-2-2-14\2-3-2-7-8-7-x-10-10----|

chorus

outro

|-----------------------------------|-----------------------------------|
|-----------------------------------|-----------------------------------|
|---------------5--------3-------2--|---------------5--------3-------5--|
|--3-2-0-2-0-2-----2-0-2---2-0-2----|--3-2-0-2-0-2-----2-0-2---2-0-2----| x4



[You must be registered and logged in to see this link.]


CrowX
Administrator
View user profile

Sponsored content


View previous topic View next topic Back to top  Message [Page 1 of 1]

Permissions in this forum:
You cannot reply to topics in this forum

FacebookTwitterFacebookFacebook

 
  •  

Free forum | © PunBB | Free forum support | Contact | Report an abuse | Forumotion.com