The Sickness Bass Tabs


You are not connected. Please login or register

View previous topic View next topic Go down  Message [Page 1 of 1]

1 The Sickness Bass Tabs on Sat 07 Mar 2009, 16:19

Ravensclaw

avatar
Administrator
Voices

Heavy part
-|----------------------------------|---------------------------------------|-
-|----------------------------------|---------------------------------------|-
-|----------------------------------|---------------------------------------|-
-|--7--9--7---9-7-9-9-7-9---3-------|-7--9--7--9--7--9--7--9--------xxxxxx--|-


Verses
-|----------------------------------|---------------------------------------|-
-|----------------------------------|---------------------------------------|-
-|----------------------------------|---------------------------------------|-
-|-7-9-7--9-7-9--9-7-9--3----3------|--/7-9-7--9-7-9--9-7-9-/15-15-15-------|-

Chorus

G|---------------------------|--------------------------|
D|------0------4------9------|------0------4------9-----|
A|----0------4------9--------|----0------4------9---9---|
D|--0------4------9----------|--0------4------9-------9-|


G|-------------------|
D|------0------4-----|
A|----0------4-------|
D|--0------4------0--|


Bridge:

G|---------------------| |--------------------------|
D|---------------------| 5X Then: |-------------9--9--9--9---|
A|---------------------| |--------------------------|
D|--9--7--10--4--5--7--| |--9--7--10----------------|

2nd Bridge:

G|-------------------------------|-------------------------------|
D|-------------------------------|-------------------------------|
A|-------------------------------|-------------------------------|
D|-9--12-9--10-9--12-9--10-9--12-|-9--12-9--10-9--12-9--10-9--15-|



[You must be registered and logged in to see this image.]


Ravensclaw
Administrator
The Pioneer All Things Disturbed Joke!
View user profile

2 Re: The Sickness Bass Tabs on Sat 07 Mar 2009, 16:20

Ravensclaw

avatar
Administrator
The Game

|--------------|-----------------|
|--------------|-----------------|
|-----------8--|---57------------|
|-0--0----0----|-00--0000350000-1|

|--------------|-----------------|
|--------------|-----------------|
|-----------8--|---57------------|
|-0--0----0----|-00--0000350000-5|


(1:21)
(3:14)
Chorus:(x8)

|---------------------|-----------|
|---------------------|-----------|
|---------------------|-----------|
|-0-0-0---0---0---000-|0--0---0-1-|

|------9---------9---9-|------9---------9---9-|------9---------9---9-|
|----------------------|----------------------|----------------------|
|--7-7---7-7-7-7---7---|--7-7---7-7-7-7---7---|--7-7---7-7-7-7---7---|
|----------------------|----------------------|----------------------|

|-------9-------9---|
|-------------------|
|--7-7----77--7---7-|
|------------0------|


(2:36)

|--------------|--------------------------|
|--------------|--------------------------|
|--------------|--------------------------|
|-0------1---1-|-0------0-1-2-3-2-1-2-2-3-|


(2:58)

|-----------------|----------------------|
|-----------------|------------5-7---5-7-|
|-----------------|---------5-7---5-7----|
|-0---------1---1-|-0--------------------|

|-----------------|----------------------|
|-----------------|----------------------|
|-----------------|---------5-7---3-5----|
|-0---------1---1-|-0----------5-7---3-5-|



[You must be registered and logged in to see this image.]


Ravensclaw
Administrator
The Pioneer All Things Disturbed Joke!
View user profile

3 Re: The Sickness Bass Tabs on Sat 07 Mar 2009, 16:21

Ravensclaw

avatar
Administrator
Stupify

A 5-string bass is recommended for this song, but not necessary.

Tuning is as follows:

Tune all strings down a minor third (three steps)

1 = E
2 = B
3 = F #
4 = C #

(The fifth string would be G#)

Chorus/Intro
1 ----------------------------------
2 ----------------------------------
3 -3------------------5h7-----------
4 ----0-0-0-0----0-0-------0-0------

Verse
(the periods mean play the notes short with a heavy attack)
1 ----------------------------------
2 ----------------------------------
3 ----------------------------------
4 -0---0---0---0--------------------
. . . .

Fill 1, before second verse
1 ----------------------------------
2 ----------------------------------
3 ----------------------------------
4 -0---0---0---0-----------7-------
. . . .

Far Eastern part
(3X)
1 ----------------------------------
2 -----9--8---9---------------------
3 -7--------------------------------
4 ----------------------------------

(1X)
1 ---------------------7------------
2 -----9----8----9---------9--------
3 -7--------------------------------
4 ----------------------------------

Interlude
(2X)
1 ------------------
2 ------------------
3 ------------------
4 0-----------------

(1X)
1 --------------------------------------
2 --------------------------------------
3 --------------------------------------
4 -0----3-----0------3-------0--1-------

Heavy Chorus without lyrics
1 ------------------------------------------------
2 ------------------------------------------------
3 -3----------------------------------------------
4 ----0-0-0-0----0-0-0-0--1----0-0-0-0------------

Last fill before Heavy Outro
1 ----------------------------
2 ----------------------------
3 ----------------------------
4 -1-0-0---0-1-0-0-0----------

Heavy Outro
(4X)
1 ------------------------------------------------------------------
2 ------------------------------------------------------------------
3 ------------------------------------------------------------------
4 -0-0---0-0---0-0---0-0---0-0-0-0---1-----0-0-0------0-0-----------
. . . . . . . .

(1X)
1 ----------------------------------
2 ----------------------------------
3 ----------------------------------
4 -0-0---0-0---0-0---0-0------------


This is a tab for "Stupify" by "Disturbed." This is arranged for a 5
string bass in standard tuning (B E A D G). I basically just transposed
Michael Evan's de-tuned 4 string tab. Also, where Michael says the bass
should be de-tuned three steps, I believe that he meant 3 half-steps.
At least that's what the notes he wrote are. He did get the interval
(minor third) correct though.

Enjoy
Ari D.
[You must be registered and logged in to see this link.]

Chorus/Intro
G -----------------------------------
D -----------------------------------
A -0------------------3h5------------
E -----------------------------------
B ----2-2-2-2----2-2-------2-2-------

Verse (Colon (:) = Staccato)
G -----------------------------------
D -----------------------------------
A -----------------------------------
E -----------------------------------
B -2:---2:---2:---2:-----------------

Fill 1 (before second verse)
G -----------------------------------
D -----------------------------------
A -----------------------------------
E -----------------------------------
B -2:---2:---2:---2:-----------9----

Odd Eastern-ish sounding part
(3X)
G -----------------------------------
D -----6--5---6----------------------
A -4---------------------------------
E -----------------------------------
B -----------------------------------

(1X)
G ------------------4----------------
D -----6--5---6---------6------------
A -4---------------------------------
E -----------------------------------
B -----------------------------------

Interlude
(2X, let ring)
G -----------------------------------
D -----------------------------------
A -----------------------------------
E -----------------------------------
B -2---------------------------------

(1X)
G -----------------------------------
D -----------------------------------
A -----------------------------------
E ------0------------0---------------
B –2----------2--------------2--3----

Heavy Chorus w/out lyrics
G ------------------------------------
D ------------------------------------
A -0----------------------------------
E ------------------------------------
B ----2-2-2-2----2-2-2-2-3----2-2-2-2-

Fill 2(Before Heavy Outro)
G ------------------------------------
D ------------------------------------
A ------------------------------------
E ------------------------------------
B -3-2-2---2-3-2-2-2------------------

Heavy Outro
(4X)
G -----------------------------------------------------------------
D -----------------------------------------------------------------
A -----------------------------------------------------------------
E -----------------------------------------------------------------
B -2:-2:---2:-2:---2:-2:---2:-2:---2-2-2-2---3-----2-2-2-----2:-2:-

(1X)
G ------------------------------------
D ------------------------------------
A ------------------------------------
E ------------------------------------
B -2-2---2-2---2-2---2----------------



[You must be registered and logged in to see this image.]


Ravensclaw
Administrator
The Pioneer All Things Disturbed Joke!
View user profile

4 Re: The Sickness Bass Tabs on Sat 07 Mar 2009, 16:22

Ravensclaw

avatar
Administrator
Down With The Sickness

Drop D Tunning

G|-------------------------------|
D|-------------------------------|
A|-------------------------------| x8
D|--X-X--X-X--X-X--X-X--X-X-X-X--|

G|-----------------------|-----------|
D|-----------------------|-----------|
A|-----------------------|-----------| x3
D|-1-4-1-2-1--1-4-1-2-1--|--1-4-1-2--|

G|-----------------------|-----------|------|
D|-----------------------|-----------|------|
A|-----------------------|-----------|------| x1
D|-1-4-1-2-1--1-4-1-2-1--|--1-4-1-2--|-2222-|

G|-----------------------|-----------|
D|-----------------------|-----------|
A|-----------------------|-----------| x3
D|-1-4-1-2-1--1-4-1-2-1--|--1-4-1-2--|

G|-------------------------|
D|-------------------------|
A|-------------------------| x1
D|-1-4-1-2-1--1-4-22222222-|

Verse
G|----------------------|--------------------|
D|----------------------|--------------------|
A|----------------------|--------------------| x4
D|--11111--11111--1111--|-11111--11111--2222-|

G|-----------------------|-----------|
D|-----------------------|-----------|
A|-----------------------|-----------| x8
D|-1-4-1-2-1--1-4-1-2-1--|--1-4-1-2--|

Chorus
G|---------------|--------------|--------------| -----|
D|---------------|--------------|--------------| |
A|---------------|--------------|--------------| |
D|--1-1121-1-121-|-1-1121-1-222-|-1-1121-1-121-| |
| x2
G|--------------| |
D|--------------| |
A|--------------| |
D|-3--3-31--1-1-| -----|

Verse
G|----------------------|--------------------|
D|----------------------|--------------------|
A|----------------------|--------------------| x4
D|--11111--11111--1111--|-11111--11111--2222-|

G|-----------------------|-----------|
D|-----------------------|-----------|
A|-----------------------|-----------| x8
D|-1-4-1-2-1--1-4-1-2-1--|--1-4-1-2--|


Chorus
G|---------------|--------------|--------------| -----|
D|---------------|--------------|--------------| |
A|---------------|--------------|--------------| |
D|--1-1121-1-121-|-1-1121-1-222-|-1-1121-1-121-| |
| x2
G|--------------| |
D|--------------| |
A|--------------| |
D|-3--3-31--1-1-| -----|

Bridge
G|--------|
D|--------|
A|--------| x8
D|-10-9-1-|

G|------------------|
D|------------------|
A|------------------| x3
D|-3-9-10-15-3-9-10-|

G|--------|
D|--------|
A|--------| x4
D|-3-9-10-|

G|------------------|
D|------------------|
A|------------------| x3
D|-3-9-10-15-3-9-10-|

Rest

G|------------------------------|
D|-3-6-3-4-3--3-6-3-4-3--3-6-3-4|
A|------------------------------| x2
D|------------------------------|

Chorus
G|---------------|--------------|--------------| -----|
D|---------------|--------------|--------------| |
A|---------------|--------------|--------------| |
D|--1-1121-1-121-|-1-1121-1-222-|-1-1121-1-121-| |
| x2
G|--------------| |
D|--------------| |
A|--------------| |
D|-3--3-31--1-1-| -----|



[You must be registered and logged in to see this image.]


Ravensclaw
Administrator
The Pioneer All Things Disturbed Joke!
View user profile

5 Re: The Sickness Bass Tabs on Sat 07 Mar 2009, 16:24

Ravensclaw

avatar
Administrator
Violence Fetish

Gtr I (Bb Db Ab Db Gb) - 'Fuzz'

Intro
Moderately Q=90
4/4
Gtr I
H +Q. S S H +Q. S S H +Q. S S H +Q. S S
|-----------------|-------------------|-------------------|--------------------|
|-----------------|-------------------|-------------------|--------------------|
|-----------------|-------------------|-------------------|--------------------|
|-0----(0)---9-11-|-12----(12)---9-11-|-12----(12)---9-11-|-12----(12)---9-11--|
|-----------------|-------------------|-------------------|--------------------|


H +Q. S S H +Q. S S S S S S S S S S S S S S S S S S 4x
|-------------------|------------------||-----------------------------------||
|-------------------|------------------||o---------------------------------o||
|-------------------|------------------||-----------------------------------||
|-12----(12)---9-11-|-12----(12)-------||o---------------------------------o||
|-------------------|--------------0-2-||--3-3---3-3---3-3---3---3-3---0-2--||


E. S +E E +S E. E E E. S +E E +S E. S S E
|------------------------|-------------------------|
|----------------------7-|-------------------------|
|-------------------/8---|-------------------------|
|-0--1-(1)-0-(0)-0-------|-0--1-(1)-0-(0)-0--1p0-1-|
|------------------------|-------------------------|


E. S +E E +S E. E E E. S +E E +S E. S S E
|------------------------|---------------------------||
|----------------------7-|---------------------------||
|-------------------/8---|---------------------------||
|-0--1-(1)-0-(0)-0-------|-0--1-(1)-0-(0)-0--1-1-----||
|------------------------|---------------------------||


Verse
$
S E S S S E S S S S S S S S 8x
||-------------------------------||
||o-----------------------------o||
||-------------------------------||
||o-0-0-0---0-0---0---0-0---0---o||
||-------------------------------||


Pre-chorus
$$
S E. +E E S E S E S S S E. +E E +S S S S S S S S
|------------------------|------------------------------|
|------------------------|------------------------------|
|------------------------|--------------------7---------|
|-3-3--(3)-2-2h3-3s5-5s7-|-8-8--(8)-7-(7)-7-8---8-7-----|
|------------------------|--------------------------8-7-|


To Dbl. Coda
E. S +E E +E E S S S S S S E E E +E S S E E
|--------------------------|-----------------------||
|--------------------------|-----------------------||
|--------------------------|-----------------------||
|----------------------7h8-|-6S7-8-8-7-(7)-7-8-7-7-||
|-6--6-(6)-5-(5)-5-5h6-----|-----------------------||


Chorus
E. S +E E +S E. E E E. S +E E +S E. S S E
||-------------------------|-------------------------|
||o----------------------7-|-------------------------|
||--------------------/8---|-------------------------|
||o-0--1-(1)-0-(0)-0-------|-0--1-(1)-0-(0)-0--1p0-1-|
||-------------------------|-------------------------|


To Coda
E. S +E E +S E. E E E. S +E E +S E. S S E
|------------------------|---------------------------||
|----------------------7-|--------------------------o||
|-------------------/8---|---------------------------||
|-0--1-(1)-0-(0)-0-------|-0--1-(1)-0-(0)-0--1-1----o||
|------------------------|---------------------------||


D.S. al Coda
S E S S S E S S S S S S S S S E S S S E S S S S S S S S
|-----------------------------|-----------------------------||
|-----------------------------|-----------------------------||
|-----------------------------|-----------------------------||
|-0-0-0---0-0---0---0-0---0---|-0-0-0---0-0---0---0-0---0---||
|-----------------------------|-----------------------------||


Bridge
& D.S.S. al Dbl. Coda
3/4
E E Q Q 4x E E E S S S S S S 7x E E E S S S S S S
||-------------||-||---------------------||-------------------||
||o-----------o||-||o-------------------o||-------------------||
||-------------||-||------5--------------||-----5-------------||
||o-0-0-------o||-||o-0-0---0-1-0-2-0-3-o||-0-0---0-1-0-2-0-2-||
||-------------||-||---------------------||-------------------||


3rd Chorus
&&
4/4
S S E E E +E S S Q E. S +E E +S E. E E E. S +E E +S E. S S S S 3x
|----------------------||------------------------|----------------------------||
|----------------------||o-----------------------|---------------------------o||
|----------------------||------------------------|----------------------------||
|-6S7-8-8-7-(7)-7-8----||o-0--1-(1)-0-(0)-0--1-0-|-0--1-(1)-0-(0)-0--1-0-0-0-o||
|----------------------||------------------------|----------------------------||


E. S +E E +S E. E E E. S +E E +S E S S S E
|-----------------------|--------------------------*|
|-----------------------|--------------------------*|
|-----------------------|--------------------------*|
|-0--1-(1)-0-(0)-0--1-0-|-0--1-(1)-0-(0)-0-0-0---0-*|
|-----------------------|--------------------------*|


Duration Legend
---------------
W - whole; H - half; Q - quarter; E - 8th; S - 16th; T - 32nd; X - 64th; a - acciaccatura
+ - note tied to previous; . - note dotted; .. - note double dotted
Uncapitalized letters represent notes that are staccato (1/2 duration)
Irregular groupings are notated above the duration line
Duration letters will always appear directly above the note/fret number it represents the
duration for. Duration letters with no fret number below them represent rests. Multi-
bar rests are notated in the form Wxn, where n is the number of bars to rest for. Low
melody durations appear below the staff

Tablature Legend
----------------
h - hammer-on
p - pull-off
b - bend
pb - pre-bend
r - bend release (if no number after the r, then release immediately)
/\ - slide into or out of (from/to "nowhere")
s - legato slide
S - shift slide
- natural harmonic
[n] - artificial harmonic
n(n) - tapped harmonic
~ - vibrato
tr - trill
T - tap
TP - trem. picking
PM - palm muting
\n/ - tremolo bar dip; n = amount to dip
\n - tremolo bar down
n/ - tremolo bar up
/n\ - tremolo bar inverted dip
= - hold bend; also acts as connecting device for hammers/pulls
<> - volume swell (louder/softer)
x - on rhythm slash represents muted slash
o - on rhythm slash represents single note slash

Misc Legend
-----------
| - bar
|| - double bar
||o - repeat start
o|| - repeat end
*| - double bar (ending)
: - bar (freetime)
$ - Segno
& - Coda
Tempo markers - = BPM(8/16=s8/s16), where s8 = swing 8ths, s16 = swing 1



[You must be registered and logged in to see this image.]


Ravensclaw
Administrator
The Pioneer All Things Disturbed Joke!
View user profile

6 Re: The Sickness Bass Tabs on Sat 07 Mar 2009, 16:25

Ravensclaw

avatar
Administrator
Fear

Tuning: Drop D minor, half a step down the drop D (Db, Ab, Db, Gb, low to high)


Intro
Gb|------------------------------------------------------------|
Db|------------------------------------------------------------|
Ab|------------------------------------------------------------|
Db|---7�/76--0-2-3-5--0/76--0-----2-----3-----5------------|


Verse
Gb|------------------------------------------|
Db|------------------------------------------|
Ab|------------------------------------------|
Db|-0-2-0-2-0-2-00-0-2-00-0-2-0--0-----------|


Chorus
Gb|---------------------------------------------|
Db|---------------------------------------------|
Ab|--7---------7---------7---------7--------|
Db|------0-1-3------0-1-3------0-1-3------0-1-3-|


Outtro
Gb|------------------------------------------|
Db|------------------------------------------|
Ab|------------------------------------------|
Db|-0-2-0-2-0-2-00-0-2-00-0-2-0--0-----------|(same as verse really)



[You must be registered and logged in to see this image.]


Ravensclaw
Administrator
The Pioneer All Things Disturbed Joke!
View user profile

7 Re: The Sickness Bass Tabs on Sat 07 Mar 2009, 16:26

Ravensclaw

avatar
Administrator
Numb

Tablature Legend
----------------p - pull off
b - bend string up
r - release bend
/ - slide up
- slide down
v - vibrato (sometimes written as ~)
t - right hand tap
x - play \'note\' with heavy damping
~ = Vibrato (Or With Your Finger)
^ = Bend (Push The Strings Up Or Down)
/ = Slide Up
\\ = Slide Down
H = Hammer On
P = Pull Off
_ = Let Ring
> = Pick Slide
P.M.= Palm Muted
# = Harmonics


b - bend
x - dead mute
p - pull off
h - hammer on
/ - slide up
\ - slide down

h - hammer-on
p - pull-off
b - bend
pb - pre-bend
r - bend release (if no number after the r, then release immediately)
/\ - slide into or out of (from/to "nowhere")
s - legato slide
S - shift slide
- natural harmonic
[n] - artificial harmonic
n(n) - tapped harmonic
~ - vibrato
tr - trill
T - tap
TP - trem. picking
PM - palm muting
\n/ - tremolo bar dip; n = amount to dip
\n - tremolo bar down
n/ - tremolo bar up
/n\ - tremolo bar inverted dip
= - hold bend; also acts as connecting device for hammers/pulls
<> - volume swell (louder/softer)
x - on rhythm slash represents muted slash
o - on rhythm slash represents single note slash

Misc Legend
-----------
| - bar
|| - double bar
||o - repeat start
o|| - repeat end
*| - double bar (ending)
: - bar (freetime)

Band: Disturbed
Song: Numb
CD: The Sickness

FUZZ IS A KICK ASS BASS PLAYER LISTEDN TO THIS CD YOU SEE HOW BAD ASS BASS PLAYER HE IS

Tuning: Drop D Flat (Db Ab Db Gb)

Intro/Verse
|-------------7-|
|-------------7-|
|-------------5-|
|-0h3-3-3-35---|x16

Pre-Chorus
|---------|
|---------|
|---------|
|-5br-3-0-|play 3 times

|------------------------|
|------------------------|
|------------------------|
|-6-0--0-0-3---0-5br-3-0-|x3

|----------------------|
|----------------------|
|----------------------|
|-6-0--0-0-3---0-----3-|

Chorus
|---------------------------------|
|---------------------------------|
|-2---2-----2---2-3---3-----5---5-|
|---2---2-2---2-----2---2-2---2---|x3

|---------------------------|
|---------------------------|
|-2---2-----2---2-3---3-----|
|---2---2-2---2-----2---2/-|

.

Bridge
|---------------------------------------8-|
|---------------------------------------8-|
|------0h1-0----------------0h1-0---3---6-|
|-0--0---------3--x-1--0--0---------------|x2



|-------------------------------------------------|
|-------------------------------------------------|
|-2---2---2---2-3---3-----2---2---2---2-3---3-----|
|---2-------2-----2---------2-------2-----2-----3-|

|------------------------------------------------------|
|------------------------------------------------------|
|-2---2---2---2-3---3-----2---2---2---2-3---3----------|
|---2-------2-----2---------2-------2-----2----5br-3-0-|

Last Pre-Chorus
|------------------------|
|------------------------|
|------------------------|
|-6-0--0-0-3---0-5br-3-0-|x3

|---------------------------------|
|---------------------------------|
|---------------------------------|
|-3br-0-3br-0-3br-0-3br-0-5br-3-0-|

|------------------------|
|------------------------|
|------------------------|
|-6-0--0-0-3---0-5br-3-0-|x3

Outro
|---------------------------------|
|-3-2-0-3-2-0-3-2-0-3-2-0-3-2-3-2-|
|---------------------------------|
|---------------------------------|x4

|---------------------------------|
|---------------------------------|
|---------------------------------|
|-5-3-0-5-3-0-5-3-0-5-3-0-5-3-5-3-|x4

|---|
|---|
|---|
|-0-|



[You must be registered and logged in to see this image.]


Ravensclaw
Administrator
The Pioneer All Things Disturbed Joke!
View user profile

8 Re: The Sickness Bass Tabs on Sat 07 Mar 2009, 16:27

Ravensclaw

avatar
Administrator
Want

5-string bass tuned down a � step
(low to high)- Bb,Eb,Ab,Db,Gb


Intro/Chorus: (0:28) (1:15) (2:04)
Gb-------------------------------------------------------------
Db-------------------------------------------------------------
Ab-------------------------------------------------------------
Eb-0---0-0-0-0----0-0-0---------0---0-0-0-0---0-0-0-0-0-0-0-0--
Bb----------------------3-5-6----------------------------------


Verse: (0:52) (1:41)
-------------------------------------------------------------------
-----------------------7-5---7--------------------------3-2---2----
-7-7-7-7-7-7-5-7-7-5-7-----7---7--3-3-3-3-3-3-3-3-3-2-3-----3---3--
-------------------------------------------------------------------
-------------------------------------------------------------------

-------------------------------------------------------------------
-------------------------4--------------------------------3-3-3-3--
-----------------------4---4-2-------------------------------------
-2-2-2-2-2-2-0-2-2-0-2---------2--1-1-1-1-1-1-0-1-1-0-1-1----------
-------------------------------------------------------------------


Bridge: (2:34)
------------9---9---------------9--10-------------------9---9-----
----------8---8---8-----------8--------9--------------8---8---8---
-------7-------------------7--------------9--------7--------------
-0--0----------------0--0--------------------0--0-----------------
------------------------------------------------------------------

1st ending:
---------------9---9---9-/-10--
----------8--8---8---8---------
-------7-----------------------
-0--0--------------------------
-------------------------------

2nd ending:
-------------10-9-8--------------
----------8---------10-9-8-------
-------7-------------------10-9--
-0--0----------------------------
---------------------------------


Interlude: (2:57)
-----------------------------------------------------------------------
-----------------------------------------------------------------------
----------------------------------------------------------------333333-
------------------3--2--2--3--2--0--0--0--2--3-------------------------
-1--1--1--0--0--0------------------------------1--1--1--0--0--0--------


Next thing: (3:06)
--------------------------------------------------------
--------------------------------------------------------
--------------------------------------------------------
-0--0-0-0-0---0-0-0--------0-0---0-0---0-0---0-0--------
--------------------3-5-6-------------------------------


Outro A: (3:30)
---------------------------------
---------------------------------
---------------------------------
-0-0-0-0-0-0-0-0-0-0-0-0---------
-------------------------3-5-6---


Outro B: (3:41)
---------------------------------------------
---------------------------------------------
---------------------------------------------
-0-0--0-0--0-0-0-0-0---0-0--0-0--0-0-0-0-0---
---------------------------------------------



[You must be registered and logged in to see this image.]


Ravensclaw
Administrator
The Pioneer All Things Disturbed Joke!
View user profile

9 Re: The Sickness Bass Tabs on Sat 07 Mar 2009, 16:29

Ravensclaw

avatar
Administrator
Conflict

Drop D Tunning

Intro/Chorus
G|---------------|---------------|
D|---------------|---------------|
A|---------------|---------------|
D|2h3-2h3-2h3-3-2|3h4-3h4-3h4-4-3|

Pre-verse
G|-------------|
D|-------------|
A|3-3-3--2-2--1|
D|-------------|

Verse
G|-------|-------|-------|-------|
D|-------|-------|-------|-------|
A|-------|-------|-------|-------|
D|0000--4|0000--3|0000--2|0000--3|

Bridge 1
G|-----|-----|-----|
D|-----|-----|-----|
A|-----|-----|-----|
D|2h3-3|3h4-3|2h3-3|

Bridge 2
G|-------|------|
D|-------|------|
A|-------|------|
D|0/7-5-3|/7-5-3|

Outro
G|---|
D|---|
A|---|
D|0-1|

Last bar
G|-----|
D|-----|
A|-----|
D|00-11| fade



[You must be registered and logged in to see this image.]


Ravensclaw
Administrator
The Pioneer All Things Disturbed Joke!
View user profile

10 Re: The Sickness Bass Tabs on Sat 07 Mar 2009, 16:31

Ravensclaw

avatar
Administrator
Shout 2000

Band- Disturbed
Song- Shout 2000

Gtr I (Bb Db Ab Db Gb) - 'Fuzz'
Gtr II (Bb Db Ab Db Gb) - 'Slap'

Intro
Moderately Q=96
4/4
Gtr I
Wx2 E S S S S E S E S E S S E S S S S E S E S E S S
|------------||--------------------------|-------------------------|
|------------||o-------------------------|-------------------------|
|------------||--------------------------|-------------------------|
|------------||o-7-7-5-7-8-7-5-7-5-7-5-8-|-7-7-5-7-8-7-5-7-5-7-5-8-|
|------------||--------------------------|-------------------------|


E S S S S E S E S E S S E S S S S E S E S E S S
|-------------------------|-------------------------|
|-------------------------|-------------------------|
|-------------------------|-------------------------|
|-3-3-3-3-3-3-0-5-3-3-0-2-|-3-3-3-3-3-3-0-3-3-3-3-3-|
|-------------------------|-------------------------|


e S S S S S S S S S S S S S S e S S S S S S S S S S S S S S
|-------------------------------|--------------------------------|
|-------------------------------|--------------------------------|
|-------------------------------|--------------------------------|
|-------------------------------|--------------------------------|
|-3-3-3---3-3---3-3---3-3---0-2-|-3-3-3---3-3---3-3---3-3---0-2--|


E S S S S E S E S E S S E S S S S E S E S E S S
|-------------------------|--------------------------||
|-------------------------|-------------------------o||
|-------------------------|--------------------------||
|-7-7-5-7-8-7-5-7-5-7-5-8-|-7-7-5-7-8-7-5-7-5-7-5-8-o||
|-------------------------|--------------------------||


1st Verse
Q. E +E E Q Q. E +E E Q
|-----------------|-----------------|
|-----------------|-----------------|
|--------------3--|--------------3--|
|-----------------|-----------------|
|-1----1-(1)-1----|-1----1-(1)-1----|


S S S S E S S S S E Q S S S S E S S S S E Q
|--------------------------|---------------------------|
|--------------------------|---------------------------|
|--------------------------|---------------------------|
|--------------------------|---------------------------|
|-3-3-3-3---3-3-3-3---15\--|-3-3-3-3---3-3-3-3---15\---|


Q. E +E E Q Q. E +E E Q
|-----------------|-----------------|
|-----------------|-----------------|
|--------------3--|--------------3--|
|-----------------|-----------------|
|-1----1-(1)-1----|-1----1-(1)-1----|


S S S S E S S S S E Q S S S S E S S S S E Q
|--------------------------|---------------------------||
|--------------------------|---------------------------||
|--------------------------|---------------------------||
|--------------------------|---------------------------||
|-3-3-3-3---3-3-3-3---15\--|-3-3-3-3---3-3-3-3---15\---||


2nd and 3rd Verses
Q. E +E E Q Q. E +E E Q
||------------------|-----------------|
||o-----------------|-----------------|
||---------------3--|--------------3--|
||o-----------------|-----------------|
||--1----1-(1)-1----|-1----1-(1)-1----|


S S S S E S S S S E Q S S S S E S S S S E Q
|--------------------------|--------------------------|
|--------------------------|--------------------------|
|--------------------------|--------------------------|
|--------------------------|--------------------------|
|-3-3-3-3---3-3-3-3---15\--|-3-3-3-3---3-3-3-3---15\--|


Q. E +E E Q Q. E +E E Q
|-----------------|-----------------|
|-----------------|-----------------|
|--------------3--|--------------3--|
|-----------------|-----------------|
|-1----1-(1)-1----|-1----1-(1)-1----|


S S S S E S S S S E Q S S S S E S S S S E Q
|--------------------------|---------------------------||
|--------------------------|---------------------------||
|--------------------------|---------------------------||
|--------------------------|---------------------------||
|-3-3-3-3---3-3-3-3---15\--|-3-3-3-3---3-3-3-3---15\---||


Chorus
E S S S S E S E S E S S E S S S S E S E S E S S
|-------------------------|-------------------------|
|-------------------------|-------------------------|
|-------------------------|-------------------------|
|-7-7-5-7-8-7-5-7-5-7-5-8-|-7-7-5-7-8-7-5-7-5-7-5-8-|
|-------------------------|-------------------------|


E S S S S E S E S E S S E S S S S E S E S E S S
|-------------------------|-------------------------|
|-------------------------|-------------------------|
|-------------------------|-------------------------|
|-3-3-3-3-3-3-0-5-3-3-0-2-|-3-3-3-3-3-3-0-3-3-3-3-3-|
|-------------------------|-------------------------|


1.
e S S S S S S S S S S S S S S e S S S S S S S S S S S S S S
|-------------------------------|--------------------------------|
|-------------------------------|--------------------------------|
|-------------------------------|--------------------------------|
|-------------------------------|--------------------------------|
|-3-3-3---3-3---3-3---3-3---0-2-|-3-3-3---3-3---3-3---3-3---0-2--|


E S S S S E S E S E S S E S S S S E S E S E S S
|-------------------------|--------------------------||
|-------------------------|-------------------------o||
|-------------------------|--------------------------||
|-7-7-5-7-8-7-5-7-5-7-5-8-|-7-7-5-7-8-7-5-7-5-7-5-8-o||
|-------------------------|--------------------------||


2.
E S S S S S S S S S S S S S S
|-------------------------------||
|-------------------------------||
|-------------------------------||
|-------------------------------||
|-3-3-3---3-3---3-3---3-3---0-2-||


Bridge
Wx4 E E S S E Q Q E E S S E Q Q
|------------|-----------------|-----------------|
|------------|-----------------|-----------------|
|------------|-----------------|-----------------|
|------------|-----------------|-----------------|
|------------|-3-3-3-3-3-3--3--|-3-3-3-3-3-3--3--|


E S S S S E Q Q E S S S S E S S S S S S e
|-------------------|----------------------------|
|-------------------|----------------------------|
|-------------------|---------------5---5-7-5----|
|-7-7-7-7-7-7-7--7--|-7-7-7-7-7-7-7---7-------7--|
|-------------------|----------------------------|


Gtr II
e E E. S S S e e E E S S S S S S S S S S S S e
||----------------------|-----------------------------|
||o-7--------7----7-----|-------------7---------------|
||---------7---10---0---|---0-5---7---------5---5-7-0-|
||o---------------------|-----------------7---7-------|
||----------------------|-----------------------------|


e E E. S S S e Q S S e S S S S S S e e E
|--------------------|-----------------------------||
|-7--------7----7----|-----------5---5-7----------o||
|--------7---10------|-0-0-0---7---7-----0-0-------||
|--------------------|----------------------------o||
|--------------------|-----------------------------||


4th Verse
Gtr I
E E E E E E E E E E E E E E E E
||------------------|-----------------|
||o-----------------|-----------------|
||------------------|-----------------|
||o-----------------|-----------------|
||--1-1-1-1-1-1-1-1-|-1-1-1-1-1-1-1-1-|


1.
S S S S E S S S S E Q S S S S E S S S S E Q
|--------------------------|---------------------------||
|--------------------------|--------------------------o||
|--------------------------|---------------------------||
|--------------------------|--------------------------o||
|-3-3-3-3---3-3-3-3---15\--|-3-3-3-3---3-3-3-3---15\---||


2.
S S S S E S S E E S S S S
|---------------------------|
|---------------------------|
|---------------------------|
|-------------------0-3-5-8-|
|-3-3-3-3---3-3-x-x---------|


3rd Chorus
E S S S S E S E S E S S E S S S S E S E S E S S
||--------------------------|-------------------------|
||o-------------------------|-------------------------|
||--------------------------|-------------------------|
||o-7-7-5-7-8-7-5-7-5-7-5-8-|-7-7-5-7-8-7-5-7-5-7-5-8-|
||--------------------------|-------------------------|


E S S S S E S E S E S S E S S S S E S E S E S S
|-------------------------|-------------------------|
|-------------------------|-------------------------|
|-------------------------|-------------------------|
|-3-3-3-3-3-3-0-5-3-3-0-2-|-3-3-3-3-3-3-0-3-3-3-3-3-|
|-------------------------|-------------------------|


E S S S S E S E S E S S E S S S S E S E S E S S
|-------------------------|-------------------------|
|-------------------------|-------------------------|
|-------------------------|-------------------------|
|-------------------------|-------------------------|
|-3-3-3-3-3-3-0-3-3-3-3-3-|-3-3-3-3-3-3-0-3-3-3-3-3-|


1.
E S S S S E S E S E S S S E S S E +E S S S S S S S
|-------------------------|------------------------------||
|-------------------------|-----------------------------o||
|-------------------------|-------5-5-(5)-5-7-7----------||
|-7-7-5-7-8-7-5-7-5-7-5-8-|-7-7-7-----------------------o||
|-------------------------|---------------------3-2-1-0--||


2.
E E S S E S S S S S S S S
|----------------------------||
|----------------------------||
|-------5-5---5-7-7----------||
|-7-7-7----------------------||
|-------------------3-2-1-0--||


Outro
1.,2.,3. 4.
E E E E +S E. Q E E E E +S E. Q 4x E E E E +S E. E E
||--------------------|--------------------||--------------------*|
||o-------------------|-------------------o||--------------------*|
||------3----------3--|-----3--------------||-----3--------------*|
||o-7-5---7-(7)-5-----|-7-5---7-(7)-5-----o||-7-5---7-(7)-5------*|
||--------------------|----------------1---||----------------1---*|


Duration Legend
---------------
W - whole; H - half; Q - quarter; E - 8th; S - 16th; T - 32nd; X - 64th; a - acciaccatura
+ - note tied to previous; . - note dotted; .. - note double dotted
Uncapitalized letters represent notes that are staccato (1/2 duration)
Irregular groupings are notated above the duration line
Duration letters will always appear directly above the note/fret number it represents the
duration for. Duration letters with no fret number below them represent rests. Multi-
bar rests are notated in the form Wxn, where n is the number of bars to rest for. Low
melody durations appear below the staff

Tablature Legend
----------------
h - hammer-on
p - pull-off
b - bend
pb - pre-bend
r - bend release (if no number after the r, then release immediately)
/\ - slide into or out of (from/to "nowhere")
s - legato slide
S - shift slide
- natural harmonic
[n] - artificial harmonic
n(n) - tapped harmonic
~ - vibrato
tr - trill
T - tap
TP - trem. picking
PM - palm muting
\n/ - tremolo bar dip; n = amount to dip
\n - tremolo bar down
n/ - tremolo bar up
/n\ - tremolo bar inverted dip
= - hold bend; also acts as connecting device for hammers/pulls
<> - volume swell (louder/softer)
x - on rhythm slash represents muted slash
o - on rhythm slash represents single note slash

Misc Legend
-----------
| - bar
|| - double bar
||o - repeat start
o|| - repeat end
*| - double bar (ending)
: - bar (freetime)
$ - Segno
& - Coda
Tempo markers - = BPM(8/16=s8/s16), where s8 = swing 8ths, s16 = swing 16ths



[You must be registered and logged in to see this image.]


Ravensclaw
Administrator
The Pioneer All Things Disturbed Joke!
View user profile

11 Re: The Sickness Bass Tabs on Sat 07 Mar 2009, 16:33

Ravensclaw

avatar
Administrator
Droppin Plates

intro
---------------
---------------
---------------
2--1111-1-11111...repeat 8 times

verse
---------------------------------------------------------------------------------------------------------------------------------------------------------------------------------------------------------------------------------------------------------------
2--2-20-2-2-0-2--2-20-2-2-0-2--2-20-2-2-0-2-2--20-2-2-0-2-2--2-20-2-2-02-2--2-20-2-2-

2nd verse
---------------------
---------------------
---------------------
3-4-0--3-4-0--4-3-2-0

---------------
---------------
---------------
2--2-20-2-2-0-2...repeat 6 times



[You must be registered and logged in to see this image.]


Ravensclaw
Administrator
The Pioneer All Things Disturbed Joke!
View user profile

12 Re: The Sickness Bass Tabs on Sat 07 Mar 2009, 16:35

Ravensclaw

avatar
Administrator
Meaning Of Life

Tuning: 5-string Bass in Drop D: (Bb, Db, Ab, Db, Gb)
Tabbed by: srxibanez
This may seem long but its it the order of the song so you wont have to look back.


Intro: Start at 00:07


Gb|----------------------------|
Db|----------------------------|
Ab|----------------------------|
Db|----------------------------|
Bb|-02---02---02---02---2-|


Verse: Start at 00:23
Gb|-----------------------------------------------------------------------------------------|
Db|*---------------------------------------------------------------------------------------*|
Ab|-----------------------------------------------------------------------------------------| X8
Db|*---------------------------------------------------------------------------------------*|
Bb|-32---22---2222---22---222---22/5-732---22---2222---22--32--2--3--5--6-|


Bridge:Start at 01:31

Gb|----------------------------|
Db|--------------------------|
Ab|----------------------------|
Db|--------------------------|
Bb|-23232---23232---235-|

Bridge2

Gb|----------------------------|
Db|----------------------------|
Ab|----------------------------|
Db|----------------------------|
Bb|-23232---23232---232-|




Verse:Start at 01:38


Gb|--------------------------------------------------------------------------------------|
Db|*------------------------------------------------------------------------------------*|
Ab|--------------------------------------------------------------------------------------| X6
Db|*------------------------------------------------------------------------------------*|
Bb|-32---22---2222---22---222---22/5-732---22---2222---22--32--2-3-5-6-|


Bridge:Start at 02:31

Gb|----------------------------|
Db|---------------------------|
Ab|----------------------------|
Db|--------------------------|
Bb|-23232---23232---235-|



Bridge2

Gb|----------------------------|
Db|----------------------------|
Ab|----------------------------|
Db|----------------------------|
Bb|-23232---23232---232-|


Mini bass solo:Start at 02:39

Gb|-------------------------------------|
Db|*----------------------------------*|
Ab|-------------------------------------| X3
Db|*--------------------------------8-*|
Bb|-22---22---222---22---22/9-----|




Gb|-------------------------------|
Db|-------------------------------|
Ab|-------------------------------|
Db|-------------------------------|
Bb|-22---22---222---22---22-|



Interlube:Start at 02:54

Gb|-------------------------------------|
Db|*----------------------------------*|
Ab|-------------------------------------| X8
Db|*--------------------------------8-*|
Bb|-22---22---222---22---22/9-----|


Verse:Start at 03:26

Gb|--------------------------------------------------------------------------------------|
Db|*------------------------------------------------------------------------------------*|
Ab|---------------------------------------------------------------------------------------| X2
Db|*------------------------------------------------------------------------------------*|
Bb|-32---22---2222---22---222---22/5-732---22---2222---22--32--2-3-5-6-|



Gb|-------------------------------------------|
Db|*----------------------------------------*|
Ab|-------------------------------------------| X3
Db|*----------------------------------------*|
Bb|-32---22---2222---22---222---22/5-|





Gb|------------------------------------------------------------|
Db|------------------------------------------------------------|
Ab|------------------------------------------------------------|
Db|------------------------------------------------------------|
Bb|-32---22---2222---22---222---22/5--2/5--2/5--2/5-|



[You must be registered and logged in to see this image.]


Ravensclaw
Administrator
The Pioneer All Things Disturbed Joke!
View user profile

Sponsored content


View previous topic View next topic Back to top  Message [Page 1 of 1]

Permissions in this forum:
You cannot reply to topics in this forum

FacebookTwitterFacebookFacebook

 
  •  

How to make a forum | © PunBB | Free forum support | Contact | Report an abuse | Free forum