You are not connected. Please login or register

View previous topic View next topic Go down  Message [Page 1 of 1]

1Ten Thousand Fists Guitar Tabs Empty Ten Thousand Fists Guitar Tabs on Fri 06 Mar 2009, 16:21

CrowX

CrowX
Administrator
TEN THOUSAND FIST GUITAR TAB

Tuning: Drop C (CGCFAD)

This song is an other insane song of Disturbed new CD Ten Thousands fists.

Intro
Guitar 1
|----------------------|-----------------|
|----------------------|-----------------|
|----------------------|-----------------|
|----------------------|-----------------|
|--9868-9868-98689868--|--9868-98689868--|
|----------------------|-----------------|
Repeat

Guitar 2 (with sitar effect)
|-------9----9--9-8-----------|
|---------11--------11-10--8--|
|-11-10-----------------------|
|-----------------------------|
|-----------------------------|
|-----------------------------|

Pre-Verse
"SURVIVAL!"
|----------------------|-----------------|
|----------------------|-----------------|
|----------------------|-----------------|
|--4303-4303-43034303--|--4303-43034303--|
|--4303-4303-43034303--|--4303-43034303--|
|--4303-4303-43034303--|--4303-43034303--|
Repeat
Verse
"ONE MORE GODDAMN DAY.."
|----------------------------------------------------------|
|----------------------------------------------------------|
|----------------------------------------------------------|
|----------------------------------------------------------|
|--3-3-3-3-3-3/5-555-58444-4-4303-4303-43034303-4303-4303--|
|--3-3-3-3-3-3/5-555-58444-4-4303-4303-43034303-4303-4303--|

Chorus
"EVil Can No LONGER COVER THEIR EYES.."
|-----------------------|------|
|-----------------------|------|
|--5-5-5/7-7-7/8-8-8/10-|-8-7--|
|--3-3-3/5-5-5/6-6-6/8--|-6-5--|
|--3-3-3/5-5-5/6-6-6/8--|-6-5--|
|--3-3-3/5-5-5/6-6-6/8--|-6-5--|

|-----------------------|-------|
|-----------------------|---7^--|
|--5-5-5/7-7-7/8-8-8/10-|--7^---|
|--3-3-3/5-5-5/6-6-6/8--|-7^----|
|--3-3-3/5-5-5/6-6-6/8--|-------|
|--3-3-3/5-5-5/6-6-6/8--|-------|

|-----------------------|------|
|-----------------------|------|
|--5-5-5/7-7-7/8-8-8/10-|-8-7--|
|--3-3-3/5-5-5/6-6-6/8--|-6-5--|
|--3-3-3/5-5-5/6-6-6/8--|-6-5--|
|--3-3-3/5-5-5/6-6-6/8--|-6-5--|

|---------------|
|---------------|
|--5-5-5/3-3-3--|
|--3-3-3/1-1-1--|
|--3-3-3/1-1-1--|
|--3-3-3/1-1-1--|

"TEN THOUDAND FISTS IN THE AIR!"
|----------------|
|----------------|
|----------------|
|----------------|
|-10-8-6-5-1-5-3-|
|-10-8-6-5-1-5-3-|

Pre-Verse

Verse

Chorus

Interlude
Guitar 1 (with Delay effect)
|------------|------------------------|
|------------|------------------------|
|------------|------------------------|
|--8-7-8-10--|---------------------0--|
|------------|--00---00-00---00-00-0--|
|------------|--00---00-00---00-00-0--|
PM .. .. .. .. ..
Repeat Repeat

Guitar 2 (with sitar effect)
|-------9----9--9-8-----------|
|---------11--------11-10--8--|
|-11-10-----------------------|
|-----------------------------|
|-----------------------------|
|-----------------------------|

Chorus

Pre-Verse

Outro
|-------------------------|----------------------------|
|-------------------------|----------------------------|
|-------------------------|----------------------------|
|--4303-4303-43034303-6-8-|-4303-4303-43034303-6-8-6-3-|
|--4303-4303-43034303-6-8-|-4303-4303-43034303-6-8-6-3-|
|--4303-4303-43034303-6-8-|-4303-4303-43034303-6-8-6-3-|



Last edited by CrowX on Fri 06 Mar 2009, 16:34; edited 1 time in total

View user profile

2Ten Thousand Fists Guitar Tabs Empty Re: Ten Thousand Fists Guitar Tabs on Fri 06 Mar 2009, 16:22

CrowX

CrowX
Administrator
JUST STOP GUITAR TAB

Intro/Guitar 1
|-------------------------------------------------------|
|-------------------------------------------------------|
|-------------------------------------------------------|
|-------------------------------------------------------|
|-----------3h5-----------5h7-----------3h5-5p3-5p7-----|
|-0-0-0-3h5-----0-0-0-5h7-----0-0-0-3h5-------------5p3-|

|-------------------------------------------------------|
|-------------------------------------------------------|
|-------------------------------------------------------|
|-------------------------------------------------------|
|-----------3h5-----------5h7-----------3h5-7p5---------|
|-0-0-0-3h5-----0-0-0-5h7-----0-0-0-3h5---------7p5-5p3-|

Intro/Guitar 2(Comes in after gtr.1 plays above 1 time)
|-------------------------------------------------------|
|-------------------------------------------------------|
|-------------------------------------------------------|
|-----------3h5-----------5h7-----------3h5-5p3-5p7-----|
|-------3h5-----------5h7-----------3h5-------------5p3-|
|-0-0-0---------0-0-0---------0-0-0---------------------|

|-------------------------------------------------------|
|-------------------------------------------------------|
|-------------------------------------------------------|
|-----------3h5-----------5h7-----------3h5-7p5---------|
|-------3h5-----------5h7-----------3h5---------7p5-5p3-|
|-0-0-0---------0-0-0---------0-0-0---------------------|

Verse
|-----------------------------------------------|
|-----------------------------------------------|
|-----------------------------------------------|
|-----------------------------------------------|
|-12/-0--0-0-0--0--0-0-0-0-0-0--0-3/2-3/2-3-3h5-|
|-12/-0--0-0-0--0--0-0-0-0-0-0--0-3/2-3/2-3-3h5-|(Not exact strumming pattern
P.M. . ..... . ........... for the 0's)

|-------------------------------------------|
|-------------------------------------------|
|-------------------------------------------|
|-------------------------------------------|
|-0--0-0-0--0--0-0-0-0-0-0--0-3/2-3/2-3-5p3-|
|-0--0-0-0--0--0-0-0-0-0-0--0-3/2-3/2-3-5p3-|
P.M. ..... . ...........

|-------------------------------------------|
|-------------------------------------------|
|-------------------------------------------|
|-------------------------------------------|
|-----------------------------3/2-3/2-3-3h5-|
|-0--0-0-0--0--0-0-0-0-0-0--0-3/2-3/2-3-3h5-|

|-----------------------------------|
|-----------------------------------|
|-----------------------------------|
|-----------------------------------|
|-----------------------------9-8-0-|
|-0--0-0-0--0--0-0-0-0-0-0--0-9-8-0-|

Chorus
|---------------------------------------|
|---------------------------------------|
|-----------------------5-5-5-5-5-5-5-5-|
|-8-8-8-8-8-8-8-3-3-3-3-5-5-5-5-5-5-5-5-|
|-8-8-8-8-8-8-8-3-3-3-3-3-3-3-3-3-3-3-3-|
|-8-8-8-8-8-8-8-3-3-3-3-----------------|

Play Intro

Fill
|------------------------------|
|------------------------------|
|------------------------------|
|------------------------------|
|-0--0-0-0--0--0-0-0-0-0-0-12/-|
|-0--0-0-0--0--0-0-0-0-0-0-12/-|
P.M. ..... . ...........

Play Verse

Play Chorus

Bridge
|---------------------------------------------|
|---------------------------------------------|
|---------------------------------------------|
|---------------------------------------------|
|-0--3--0--5--0-7-0-3-5-0-3-0-5-3-0-3-5p3-----|
|-0--3--0--5--0-7-0-3-5-0-3-0-5-3-0-3-----5p3-|
P.M. .............

|----------------------------------------|
|----------------------------------------|
|---------------------------5~~~~~~~~~~~-|
|-8~~~~~~~~~~~-3~~~~~~~~~~~-5~~~~~~~~~~~-|
|-8~~~~~~~~~~~-3~~~~~~~~~~~-3~~~~~~~~~~~-|
|-8~~~~~~~~~~~-3~~~~~~~~~~~--------------|

Last Chorus Ending Part
|-----------------------------------|
|-----------------------------------|
|-------------------------5-5-5-5-5-|
|-8-8-8-8-8-8-8-2-2-2-2-2-5-5-5-5-5-|
|-8-8-8-8-8-8-8-2-2-2-2-2-3-3-3-3-3-|
|-8-8-8-8-8-8-8-2-2-2-2-2-----------|

Play Intro x2

Ending
|---------------------------------------|
|---------------------------------------|
|---------------------------------------|
|---------------------------------------|
|-5p3-7p5-3h5-5p3-7p5-3h5-5p3-7p5-3h5-0-|
|-5p3-7p5-3h5-5p3-7p5-3h5-5p3-7p5-3h5-0-|



[You must be registered and logged in to see this link.]


CrowX
Administrator
View user profile

3Ten Thousand Fists Guitar Tabs Empty Re: Ten Thousand Fists Guitar Tabs on Fri 06 Mar 2009, 16:23

CrowX

CrowX
Administrator
GUARDED GUITAR TAB

Tuning: C, G, C, F, A, D


Intro
Q=137
D5 N.C. D5 N.C.
4/4
Gtr I
PM----| PM| PM----| PM|
Q S S S S S S S S S S S S Q S S S S S S E S S E
|----------------------------------|-----------------------------|
|----------------------------------|-----------------------------|
|----------------------------------|-----------------------------|
|----------------------------------|-----------------------------|
|-0--------------------------------|-0---------------------------|
|-0--10h12-0-0-0-0-10h12-0-0-10h12-|-0--10h12-0-0-0-0-/8-0-0-/13-|


D5 N.C. D5 N.C.
PM----| PM| PM----------------|
Q S S S S S S S S S S S S Q S S S S S S S S S S S S
|----------------------------------|-------------------------------||
|----------------------------------|-------------------------------||
|----------------------------------|-------------------------------||
|----------------------------------|-------------------------------||
|-0--------------------------------|-0-----------------------------||
|-0--10h12-0-0-0-0-10h12-0-0-10h12-|-0--10h12-0-0-0-0-6-6-6-6-6-6--||


Chorus
D5 N.C. D5 N.C.
PM----| PM| PM----| PM|
Q S S S S S S S S S S S S Q S S S S S S E S S E
||-----------------------------------|-----------------------------|
||o----------------------------------|-----------------------------|
||-----------------------------------|-----------------------------|
||-----------------------------------|-----------------------------|
||o-0--------------------------------|-0---------------------------|
||--0--10h12-0-0-0-0-10h12-0-0-10h12-|-0--10h12-0-0-0-0-/8-0-0-/13-|


D5 N.C. D5 N.C.
PM----| PM| PM----------------|
Q S S S S S S S S S S S S Q S S S S S S S S S S S S
|----------------------------------|--------------------------------||
|----------------------------------|-------------------------------o||
|----------------------------------|--------------------------------||
|----------------------------------|--------------------------------||
|-0--------------------------------|-0-----------------------------o||
|-0--10h12-0-0-0-0-10h12-0-0-10h12-|-0--10h12-0-0-0-0-6-6-6-6-6-6---||


N.C. Dsus4/G
E E E E E E E E E E E E E E E E
||----0-----0-----0-|-----0-----------|
||o-----3-----3-----|-3-----3---3-3-3-|
||------------------|-----------2-2-2-|
||------------------|-----------5-5-5-|
||o-----------------|-----------5-5-5-|
||--0-----3-----0---|---0-----0-5-5-5-|


N.C. Dsus4/G
E E E E E E E E E E E E E E E E
|---0-----0-----0-|-----0------------||
|-----3-----3-----|-3-----3---3-3-3-o||
|-----------------|-----------2-2-2--||
|-----------------|-----------5-5-5--||
|-----------------|-----------5-5-5-o||
|-0-----3-----0---|---0-----0-5-5-5--||


Verse
$
N.C. Bb5 N.C. Bb5
Gtr I
W H E E E E W H E E E E
||------------------|-----------------|-----------------|------------------||
||o-----------------|-----------------|-----------------|-----------------o||
||------------------|-----------------|-----------------|------------------||
||------------------|-----------8-8-8-|-----------------|-----------8-8-8--||
||o-----------------|-----------8-8-8-|-----------------|-----------8-8-8-o||
||------------------|-----------8-8-8-|-----------------|-----------8-8-8--||
|
| Gtr II
| E E E E E E E E E E E E E E E E E E E E E E E E E E E E E E E E
||----0-----0-----0-|-----0-------0---|---0-----0-----0-|-----0-------0----||
||o-----3-----3-----|-3-----3-------3-|-----3-----3-----|-3-----3-------3-o||
||------------------|-----------------|-----------------|------------------||
||------------------|-----------------|-----------------|------------------||
||o-----------------|---0-------0-----|-----------------|---0-------0-----o||
||--0-----3-----0---|---------0-------|-0-----3-----0---|---------0--------||


F5AbG5 F5AbG5 F5 F5AbG5 F5AbG5 F5
2/4
Gtr I
E E E E E E E E S S E S S E S S E S S E E E E E E E E E S S E S S E
|-----------------|-------------------------|-----------------|-------------||
|-----------------|-------------------------|-----------------|-------------||
|-----------------|-------------------------|-----------------|-------------||
|-3-6-5---5-3-6-5-|-x-x-3-x-x-3-x-x-3-x-x-3-|-3-6-5---5-3-6-5-|-x-x-3-x-x-3-||
|-3-6-5---5-3-6-5-|-x-x-3-x-x-3-x-x-3-x-x-3-|-3-6-5---5-3-6-5-|-x-x-3-x-x-3-||
|-3-6-5---5-3-6-5-|-x-x-3-x-x-3-x-x-3-x-x-3-|-3-6-5---5-3-6-5-|-x-x-3-x-x-3-||


Pre-Chorus
To Coda
D5 N.C.Eb5 N.C.F5 D5 N.C.Eb5 N.C.F5 N.C.
4/4
H E E Q +Q E E Q E E H E E Q +Q E E Q E E
||-------3-2----|------3-2--------|------3-2----|------3-2--------------||
||o-------------|-----------------|-------------|----------------------o||
||--------------|-----------------|-------------|-----------------------||
||--0--------1--|-(1)------3--3-3-|-0--------1--|-(1)------3------------||
||o-0--------1--|-(1)------3--3-3-|-0--------1--|-(1)------3------<5>--o||
||--0--------1--|-(1)------3--3-3-|-0--------1--|-(1)------3--<5>-------||


Chorus
D5 N.C. D5 N.C.
PM----| PM| PM----| PM|
Q S S S S S S S S S S S S Q S S S S S S E S S E
||-----------------------------------|-----------------------------|
||o----------------------------------|-----------------------------|
||-----------------------------------|-----------------------------|
||-----------------------------------|-----------------------------|
||o-0--------------------------------|-0---------------------------|
||--0--10h12-0-0-0-0-10h12-0-0-10h12-|-0--10h12-0-0-0-0-/8-0-0-/13-|


D5 N.C. D5 N.C.
PM----| PM| PM----------------|
Q S S S S S S S S S S S S Q S S S S S S S S S S S S
|----------------------------------|--------------------------------||
|----------------------------------|-------------------------------o||
|----------------------------------|--------------------------------||
|----------------------------------|--------------------------------||
|-0--------------------------------|-0-----------------------------o||
|-0--10h12-0-0-0-0-10h12-0-0-10h12-|-0--10h12-0-0-0-0-6-6-6-6-6-6---||


D.S. al Coda
Dsus4/G N.C. Dsus2Bb5
E E E E E E E E E E E E E E E E E E E E E E E E E E E E Q q
|---0-----0-----0-|-----0-----------|---0-----0-----0-|-----0------------||
|-----3-----3-----|-3-----3---3-3-3-|-----3-----3-----|-3-----3--3-------||
|-----------------|-----------2-2-2-|-----------------|----------2-------||
|-----------------|-----------5-5-5-|-----------------|---------(2)--8---||
|-----------------|-----------5-5-5-|-----------------|--------------8---||
|-0-----3-----0---|---0-----0-5-5-5-|-0-----3-----0---|---0------0---8---||


Bridge
&
D5 N.C.
W +H. Q
|----------|---------------|
|----------|---------------|
|----------|---------------|
|-0--------|-(0)-----------|
|-0--------|-(0)-----------|
|-0--------|-(0)------12\--|


D5 N.C. Bb5 A5
PM----| PM PM----|
Q E S S E E E E E S S E E E. E. E
||-------------------|-------------------|
||o------------------|-------------------|
||-------------------|-------------------|
||--0----------------|-----------8--8--7-|
||o-0----------------|-----------8--8--7-|
||--0----0-0-0-0---0-|---0-0-0-0-8--8--7-|


D5 N.C. C5 A5
PM----| PM PM----|
Q E S S E E E E E S S E E E. E. E
|------------------|---------------------|
|------------------|---------------------|
|------------------|---------------------|
|-0----------------|-----------10--10--7-|
|-0----------------|-----------10--10--7-|
|-0----0-0-0-0---0-|---0-0-0-0-10--10--7-|


D5 N.C. Bb5 A5
PM----| PM PM----|
Q E S S E E E E E S S E E E. E. E
|------------------|-------------------|
|------------------|-------------------|
|------------------|-------------------|
|-0----------------|-----------8--8--7-|
|-0----------------|-----------8--8--7-|
|-0----0-0-0-0---0-|---0-0-0-0-8--8--7-|


F5 E5 C5
Q E E E E E E E E E E E. E. E 3x
|----------------|----------------------||
|----------------|---------------------o||
|----------------|----------------------||
|-3--3-3-3-3-3-3-|-2-2-2-2-10--10--10---||
|-3--3-3-3-3-3-3-|-2-2-2-2-10--10--10--o||
|-3--3-3-3-3-3-3-|-2-2-2-2-10--10--10---||


Breakdown
D5 N.C. D5 N.C.
Gtr III
q H. q H.
|----------------------------|-----------------------------|
|----------------------------|-----------------------------|
|----------------------------|-----------------------------|
|----------------------------|-----------------------------|
|-0--------------------------|-0---------------------------|
|-0--------------------------|-0---------------------------|
|
| Gtr IV Gtr I
| PM----| PM| PM----------------|
| Q S S S S S S S S S S S S Q S S S S S S S S S S S S
|----------------------------|-----------------------------|
|----------------------------|-----------------------------|
|----------------------------|-----------------------------|
|----------------------------|-----------------------------|
|----------------------------|-----------------------------|
|-0--3h5-0-0-0-0-3h5-0-0-3h5-|-0--3h5-0-0-0-0-6-6-6-6-6-6--|


D5 F5G5N.C. F5G5N.C.F5G5 D5 F5G5N.C. F5G5N.C.F5G5
Gtr I
PM----| PM| PM----| PM|
Q S S S S S S S S S S S S Q S S S S S S S S S S S S
|----------------------------|-----------------------------|
|----------------------------|-----------------------------|
|----------------------------|-----------------------------|
|----------------------------|-----------------------------|
|-0--3h5---------3h5-----3h5-|-0--3h5---------3h5-----3h5--|
|-0--3h5-0-0-0-0-3h5-0-0-3h5-|-0--3h5-0-0-0-0-3h5-0-0-3h5--|


D5 F5G5N.C. F5G5N.C.F5G5 D5 F5G5N.C.
PM----| PM| PM----------------|
Q S S S S S S S S S S S S Q S S S S S S S S S S S S
|----------------------------|-----------------------------||
|----------------------------|-----------------------------||
|----------------------------|-----------------------------||
|----------------------------|-----------------------------||
|-0--3h5---------3h5-----3h5-|-0--3h5----------------------||
|-0--3h5-0-0-0-0-3h5-0-0-3h5-|-0--3h5-0-0-0-0-6-6-6-6-6-6--||


Out-Chorus
D5 N.C. Bb5 Bb° D5 N.C. Bb5 Bb°
Q E S S E E E E E S S E E E. E. E Q E S S E E E E E S S E E E. E. E
|------------------|-------------------|------------------|--------------------|
|------------------|-------------------|------------------|--------------------|
|------------------|-------------------|------------------|--------------------|
|-0----------------|-----------8--8--8-|-0----------------|-----------8--8--8--|
|-0----------------|-----------8--8--7-|-0----------------|-----------8--8--7--|
|-0----0-0-0-0---0-|---0-0-0-0-8--8--8-|-0----0-0-0-0---0-|---0-0-0-0-8--8--8--|


D5 N.C. Bb5 Bb° D5 N.C. Bb5 Bb°
Q E S S E E E E E S S E E E. E. E Q E S S E E E E E S S E E E. E. E
|------------------|-------------------|------------------|--------------------|
|------------------|-------------------|------------------|--------------------|
|------------------|-------------------|------------------|--------------------|
|-0----------------|-----------8--8--8-|-0----------------|-----------8--8--8--|
|-0----------------|-----------8--8--7-|-0----------------|-----------8--8--7--|
|-0----0-0-0-0---0-|---0-0-0-0-8--8--8-|-0----0-0-0-0---0-|---0-0-0-0-8--8--8--|


N.C.
+E E H. W
|---------------|------*|
|---------------|------*|
|---------------|------*|
|-(8)-----------|------*|
|-(7)-----------|------*|
|-(8)-----------|------*|



[You must be registered and logged in to see this link.]


CrowX
Administrator
View user profile

4Ten Thousand Fists Guitar Tabs Empty Re: Ten Thousand Fists Guitar Tabs on Fri 06 Mar 2009, 16:24

CrowX

CrowX
Administrator
DEIFY GUITAR TAB

Tuning: Drop C (CGCFAD)

Here's George W. Bush song!

Intro
|------------------------------------------------------------------------|
|------------------------------------------------------------------------|
|--55-55-55-55-----------------------------------------------------------|
|--55-55-55-55--5555--33-33-33-33--1-5-33-33-33-33-3333-11-11-00-00-333--|
|--33-33-33-33--5555--33-33-33-33--1-5-33-33-33-33-3333-11-11-00-00-333--|
|---------------5555--33-33-33-33--1-5-33-33-33-33-3333-11-11-00-00-333--|

Pre-Verse
|---------------------------------------|
|---------------------------------------|
|---------------------------------------|
|---------------------------------------|
|--10-10-8-10-11-10-8-10-10-10-11-10-8--|<
|--10-10-8-10-11-10-8-10-10-10-11-10-8--|< Play these notes very fast

Verse
|---------------------------|
|---------------------------|
|---------------------------| 4x
|---------------------------|
|--3333334444---------------|
|------------5555000088886--|
PM .......................

then:
|---------------------------|
|---------------------------|
|--5555556666---------------| 4x
|--55555566665555000088886--|
|--33333344445555000088886--|
|------------5555000088886--|

Pre-Chorus
|----------------|
|----------------|
|----------------| 4x
|--6--8--5-6-85--|
|--6--8--5-6-85--|
|--6--8--5-6-85--|

Chorus
|------------------------------------------------------------------------|
|------------------------------------------------------------------------|
|--55-55-55-55-----------------------------------------------------------|
|--55-55-55-55--5555--33-33-33-33--1-5-33-33-33-33-3333-11-11-00-00-333--|
|--33-33-33-33--5555--33-33-33-33--1-5-33-33-33-33-3333-11-11-00-00-333--|
|---------------5555--33-33-33-33--1-5-33-33-33-33-3333-11-11-00-00-333--|

Pre-Verse

Verse

Pre-Chorus

Chorus

Interlude
|-----------------------------------|
|-----------------------------------|
|-----------------------------------|
|-----------------------------------|
|----------11----13----11----11/12--|
|--10101010--1010--1010--1010-------|

then:
|------------------------------------|
|------------------------------------|
|------------------------------------|
|------------------------------------|
|----------16----16--------13----13--|
|--13131313--1313--11111111--1111----|
^ ^ ^ ^ ^ ^ ^ ^ ^ ^ ^ ^
this is 13 this is 11



[You must be registered and logged in to see this link.]


CrowX
Administrator
View user profile

5Ten Thousand Fists Guitar Tabs Empty Re: Ten Thousand Fists Guitar Tabs on Fri 06 Mar 2009, 16:24

CrowX

CrowX
Administrator
STRICKEN GUITAR TAB

Disturbed- Stricken
Tuning: CGCFAD
Album: Ten Thousand Fists

Intro
||---------------------------------|-----------------------------------|
||---------------------------------|-----------------------------------|
||---------------------------------|-----------------------------------|
||--0-5-7---8-7---2-3---3-5---3-6--|--0-5-7---8-7---2-3---3-5---3-3-3--|
||--0-3-5-0-8-7-0-2-3-0-3-5-0-3-6--|--0-3-5-0-8-7-0-2-3-0-3-5-0-3-3-3--|
||--0-----0-8-7-0-2-3-0-3-5-0-3-6--|--0-----0-8-7-0-2-3-0-3-5-0-3-3-3--|
PM . . . . . . . . . . .
|----------------------------------|---------------------------------------|
|----------------------------------|---------------------------------------|
|----------------------------------|--5-5-5-5-5-5-5-5--9-9-9-10-10-10-9-9--|
|--0-5-7---8-7---2-3---3-5---3-6---|--3-3-3-3-3-3-3-3--7-7-7--7--7--7-7-7--|
|--0-3-5-0-8-7-0-2-3-0-3-5-0-3-6---|--3-3-3-3-3-3-3-3--7-7-7--7--7--7-7-7--|
|--0-----0-8-7-0-2-3-0-3-5-0-3-6---|--3-3-3-3-3-3-3-3--7-7-7--7--7--7-7-7--|
PM . . . .

Verse 2x
||--------------------|--------------------|--------------------|
||--------------------|--------------------|--------------------|
||--------------------|--------------------|--------------------|
||--------------------|--------------------|--------------------|
||--0-00-00-00-00-35--|--0-00-00-0-0350333-|--0-00-00-00-00-35--|
||--0-00-00-00-00-35--|--0-00-00-0-0350333-|--0-00-00-00-00-35--|
PM . .. .. .. .. .. . .. .. ......... . .. .. .. .. ..

|-------------------------------------|
|-------------------------------------|
|--5-5-5-5-5-5-5-5--9-9-9-10-10-10-9--|
|--3-3-3-3-3-3-3-3--7-7-7--7--7--7-7--|
|--3-3-3-3-3-3-3-3--7-7-7--7--7--7-7--|
|--3-3-3-3-3-3-3-3--7-7-7--7--7--7-7--|

Chorus 2x
||--------------------------|-----------------------------|
||--------------------------|-----------------------------|
||------5-1010101010101010--|------5-1010101012-12-12-12--|
||--0--03-8-8-8-8-8-8-8-8---|--0--03-8-8-8-8-10-10-10-10--|
||--0--03-8-8-8-8-8-8-8-8---|--0--03-8-8-8-8-10-10-10-10--|
||--0--03-8-8-8-8-8-8-8-8---|--0--03-8-8-8-8-10-10-10-10--|
PM . .

|--------------------------|----------------|
|--------------------------|----------------|
|------5-1010101010101010--|-5-5-5-777-7777-|
|--0--03-8-8-8-8-8-8-8-8---|-3-3-3-555-5555-|
|--0--03-8-8-8-8-8-8-8-8---|-3-3-3-555-5555-|
|--0--03-8-8-8-8-8-8-8-8---|-3-3-3-555-5555-|
PM . .. ....

||--------------------------|-----------------------------|
||--------------------------|-----------------------------|
||------5-1010101010101010--|------5-1010101012-12-12-12--|
||--0--03-8-8-8-8-8-8-8-8---|--0--03-8-8-8-8-10-10-10-10--|
||--0--03-8-8-8-8-8-8-8-8---|--0--03-8-8-8-8-10-10-10-10--|
||--0--03-8-8-8-8-8-8-8-8---|--0--03-8-8-8-8-10-10-10-10--|
PM . .

|-------------------------|----------------|
|-------------------------|----------------|
|-----101010101010101010--|-5-555-777-7777-|
|-0-3-8-8-8-8-8-8-8-8-8---|-3-333-555-5555-|
|-0-3-8-8-8-8-8-8-8-8-8---|-3-333-555-5555-|
|-0-3-8-8-8-8-8-8-8-8-8---|-3-333-555-5555-|
PM .. ....

Lead into Verse
||---------------------------------|---------------------------------|
||---------------------------------|---------------------------------|
||---------------------------------|---------------------------------|
||--0-5-7---8-7---2-3---3-5---3-6--|--0-5-7---8-7---2-3---3-5--------|
||--0-3-5-0-8-7-0-2-3-0-3-5-0-3-6--|--0-3-5-0-8-7-0-2-3-0-3-5-0-5~~~-|
||--0-----0-8-7-0-2-3-0-3-5-0-3-6--|--0-----0-8-7-0-2-3-0-3-5-0------|
PM . . . . . . . .
PH .

|----------------------------------|---------------------------------------|
|----------------------------------|---------------------------------------|
|----------------------------------|--5-5-5-5-5-5-5-5--9-9-9-10-10-10-9-9--|
|--0-5-7---8-7---2-3---3-5---3-6---|--3-3-3-3-3-3-3-3--7-7-7--7--7--7-7-7--|
|--0-3-5-0-8-7-0-2-3-0-3-5-0-3-6---|--3-3-3-3-3-3-3-3--7-7-7--7--7--7-7-7--|
|--0-----0-8-7-0-2-3-0-3-5-0-3-6---|--3-3-3-3-3-3-3-3--7-7-7--7--7--7-7-7--|
PM . . . .

Verse 2
||--------------------|--------------------|--------------------|
||--------------------|--------------------|--------------------|
||--------------------|--------------------|--------------------|
||--------------------|--------------------|--------------------|
||--0-00-00-00-00-35--|--0-00-00-0-0350333-|--0-00-00-00-00-35--|
||--0-00-00-00-00-35--|--0-00-00-0-0350333-|--0-00-00-00-00-35--|
PM . .. .. .. .. .. . .. .. ......... . .. .. .. .. ..

|-------------------------------------|
|-------------------------------------|
|--5-5-5-5-5-5-5-5--9-9-9-10-10-10-9--|
|--3-3-3-3-3-3-3-3--7-7-7--7--7--7-7--|
|--3-3-3-3-3-3-3-3--7-7-7--7--7--7-7--|
|--3-3-3-3-3-3-3-3--7-7-7--7--7--7-7--|

||--------------------|--------------------|--------------------|
||--------------------|--------------------|--------------------|
||--------------------|--------------------|--------------------|
||--------------------|--------------------|--------------------|
||--0-00-00-00-00-35--|--0-00-00-0-0350333-|--0-00-00-00-00-35--|
||--0-00-00-00-00-35--|--0-00-00-0-0350333-|--0-00-00-00-00-35--|

|-------------------------------------|
|-------------------------------------|
|--5-5-5-5-5-5-5-5--9-9-9-10-10-10-9--|
|--3-3-3-3-3-3-3-3--7-7-7--7--7--7-7--|
|--3-3-3-3-3-3-3-3--7-7-7--7--7--7-7--|
|--3-3-3-3-3-3-3-3--7-7-7--7--7--7-7--|

Chorus

Bridge
||--------------------------------------------------------------|
||--------------------------------------------------------------|
||--------------------------------------------------------------|
||--------------------------------------------------------------|
||--0-000-00-00-00-0-000-00-00-00-0-000-00-00-00-0-000-00-00-00-|
||--0-000-00-00-00-0-000-00-00-00-0-000-00-00-00-0-000-00-00-00-|
PM . . .. . . .. . . .. . . ..

Solo- full credit to M@G on the solo
|------------------------------------|-----------------------------------------|
|--13b-----13~--------------13-17-17b|-17-15--------------------------------10~|
|------------------12/14-------------|--------14--------10-12-12r-10--------10~|
|------------------------------------|------------9/12------------------12-----|
|------------------------------------|-----------------------------------------|
|------------------------------------|-----------------------------------------|

|---------------------------------------------|
|----------------10~-------------10~----------|
|----------------10~-------------10~----------|
|---12-10-12-12------12-10-12--------12-10-12-|
|---------------------------------------------|
|---------------------------------------------|
PM . . . . . . . . . .

|-------------------------------12h13p12-|
|--12r--12r--12r--12r--10~---------------|
|--12r--12r--12r--12r--10~---------------|
|----------------------------------------|
|----------------------------------------|
|----------------------------------------|

|-------------------15b--15p13-15/17-------20b--20~--17~--18-17---------------|
|-----13--------13--------------------15~------------------------18-----------|
|--------12~-12-------------------------------------------------------17-19b--|
|-----------------------------------------------------------------------------|
|-----------------------------------------------------------------------------|
|-----------------------------------------------------------------------------|

|-----------------------------------------------------|
|----------------gradual bend-------------------------|
|---19b19b19b19b19b19b19b19b19b19b19b19r--19p17h19~---|
|-----------------------------------------------------|
|-----------------------------------------------------|
|-----------------------------------------------------|

|---------------------------------|
|--------------------13------10---|
|------7/10-12-12b-------12r------|
|---------------------------------|
|---------------------------------|
|---------------------------------|

|--13p10-12p10-------13p10-12p10-------13p10-12p10-------13p10-12p10----------|
|--------------13p10-------------13p10-------------13p10-------------13p10----|
|-----------------------------------------------------------------------------|
|-----------------------------------------------------------------------------|
|-----------------------------------------------------------------------------|
|-----------------------------------------------------------------------------|

|-13p10-12p10--------13p10-15p10-13p10-------15p10-13p10--------15p10-13p10---|
|--------------13p10-------------------13p10-------------13p10----------------|
|-----------------------------------------------------------------------------|
|-----------------------------------------------------------------------------|
|-----------------------------------------------------------------------------|
|-----------------------------------------------------------------------------|

|-------15p10-13p10--------15p10-13p10-------15--|
|-13p10------------13p10---------------13p10-----|
|------------------------------------------------|
|------------------------------------------------|
|------------------------------------------------|
|------------------------------------------------|

|------------------------------------------------|
|--10-------10-------10-------10-----------------|
|-----10-12----10-12----10-12-----------9r-------|
|--------------------------------10-12-----------|
|------------------------------------------------|
|------------------------------------------------|

|------------------------------------------------------------|
|------------------------------------------------------------|
|--17b-14-15-14-12-14-13-12----12-13-12----12-14-15-14-12----|
|--------------------------15-----------15----------------15-|
|------------------------------------------------------------|
|------------------------------------------------------------|

|----------------------------|
|----------------------------|
|12-14-15-14-12--------------|
|---------------14-15---12~--|
|----------------------------|
|----------------------------|

Verse
||--------------------|--------------------|--------------------|
||--------------------|--------------------|--------------------|
||--------------------|--------------------|--------------------|
||--------------------|--------------------|--------------------|
||--0-00-00-00-00-35--|--0-00-00-0-0350333-|--0-00-00-00-00-35--|
||--0-00-00-00-00-35--|--0-00-00-0-0350333-|--0-00-00-00-00-35--|

|-------------------------------------|
|-------------------------------------|
|--5-5-5-5-5-5-5-5--9-9-9-10-10-10-9--|
|--3-3-3-3-3-3-3-3--7-7-7--7--7--7-7--|
|--3-3-3-3-3-3-3-3--7-7-7--7--7--7-7--|
|--3-3-3-3-3-3-3-3--7-7-7--7--7--7-7--|

||--------------------|--------------------|--------------------|
||--------------------|--------------------|--------------------|
||--------------------|--------------------|--------------------|
||--------------------|--------------------|--------------------|
||--0-00-00-00-00-35--|--0-00-00-0-0350333-|--0-00-00-00-00-35--|
||--0-00-00-00-00-35--|--0-00-00-0-0350333-|--0-00-00-00-00-35--|

|-------------------------------------|
|-------------------------------------|
|--5-5-5-5-5-5-5-5--9-9-9-10-10-10-9--|
|--3-3-3-3-3-3-3-3--7-7-7--7--7--7-7--|
|--3-3-3-3-3-3-3-3--7-7-7--7--7--7-7--|
|--3-3-3-3-3-3-3-3--7-7-7--7--7--7-7--|

Chorus 2x

after Chorus
|-------------------------------------------|
|-------------------------------------------|
|--7-7-7-7-7-6-6-6-6-6-7-7-7-7-7-6-6-6-6-6--|
|--5-5-5-5-5-4-4-4-4-4-5-5-5-5-5-4-4-4-4-4--|
|--5-5-5-5-5-4-4-4-4-4-5-5-5-5-5-4-4-4-4-4--|
|--5-5-5-5-5-4-4-4-4-4-5-5-5-5-5-4-4-4-4-4--|

Outro
||---------------------------------|----------------------------------|
||---------------------------------|----------------------------------|
||---------------------------------|----------------------------------|
||--0-5-7---8-7---2-3-3-3-3-3-3-6--|--0-5-7---8-7---2-3-3-3-3-3-3-3---|
||--0-3-5-0-8-7-0-2-3-3-3-3-3-3-6--|--0-3-5-0-8-7-0-2-3-3-3-3-3-3-3---|
||--0-----0-8-7-0-2-3-3-3-3-3-3-6--|--0-----0-8-7-0-2-3-3-3-3-3-3-3---|
PM . . . . . . . . . . . . . .

||---------------------------------|------------------------------|
||---------------------------------|------------------------------|
||---------------------------------|------------------------------|
||--0-5-7---8-7---2-3-3-3-3-3-3-6--|--0-5-7---8-7---2-------------|
||--0-3-5-0-8-7-0-2-3-3-3-3-3-3-6--|--0-3-5-0-8-7-0-2-------------|
||--0-----0-8-7-0-2-3-3-3-3-3-3-6--|--0-----0-8-7-0-2-2.5*////4*--|
pm . . . . . . . .

||---------------------------------|----------------------------------|
||---------------------------------|----------------------------------|
||---------------------------------|----------------------------------|
||--0-5-7---8-7---2-3-3-3-3-3-3-6--|--0-5-7---8-7---2-3-3-3-3-3-3-3---|
||--0-3-5-0-8-7-0-2-3-3-3-3-3-3-6--|--0-3-5-0-8-7-0-2-3-3-3-3-3-3-3---|
||--0-----0-8-7-0-2-3-3-3-3-3-3-6--|--0-----0-8-7-0-2-3-3-3-3-3-3-3---|
PM . . . . . . . . . . . . . .

||---------------------------------|----------------------------------|
||---------------------------------|----------------------------------|
||---------------------------------|----------------------------------|
||--0-5-7---8-7---2-3-3-3-3-3-3-6--|--0-5-7---8-7---2-3-3-3-3-3-3-3-0-|
||--0-3-5-0-8-7-0-2-3-3-3-3-3-3-6--|--0-3-5-0-8-7-0-2-3-3-3-3-3-3-3-0-|
||--0-----0-8-7-0-2-3-3-3-3-3-3-6--|--0-----0-8-7-0-2-3-3-3-3-3-3-3-0-|
PM . . . . . . . . . . . . . .



[You must be registered and logged in to see this link.]


CrowX
Administrator
View user profile

6Ten Thousand Fists Guitar Tabs Empty Re: Ten Thousand Fists Guitar Tabs on Fri 06 Mar 2009, 16:25

CrowX

CrowX
Administrator
I'M ALIVE GUITAR TAB

Tuning- Drop C

Intro
|-----------------------------------------------------------|
|-----------------------------------------------------------|
|-----------------------------------------------------------|
|-4-4-4-5-4-4-5-4-4-7h9---4-4-4-5-4-4-5-4-4-7h9-0-7h9-0-7h9-|
|-4-4-4-5-4-4-5-4-4-7h9---4-4-4-5-4-4-5-4-4-7h9-0-7h9-0-7h9-|
|-4-4-4-5-4-4-5-4-4-7h9---4-4-4-5-4-4-5-4-4-7h9-0-7h9-0-7h9-|
P.M. . .

|------------------------------------------------------|
|------------------------------------------------------|
|------------------------------------------------------|
|-4-4-4-5-4-4-5-4-4-7h9-0-7h9-1-1-1-3-2-1-1--1-1-3-2-1-|
|-4-4-4-5-4-4-5-4-4-7h9-0-7h9-1-1-1-3-2-1-1--1-1-3-2-1-|
|-4-4-4-5-4-4-5-4-4-7h9-0-7h9-1-1-1-3-2-1-1--1-1-3-2-1-|
P.M. .

Verse
|--------------------------|--------------------------|
|-----------------x3-------|--------------------------|
|--------------------------|--------------------------|
|-4-4-4--4-5-5-5-----9-7-9-|-1-1-1-3-2-1-1--1-1-3-2-1-|
|-4-4-4--4-5-5-5-----9-7-9-|-1-1-1-3-2-1-1--1-1-3-2-1-|
|-4-4-4--4-5-5-5-----9-7-9-|-1-1-1-3-2-1-1--1-1-3-2-1-|
P.M.... ....... .....

|-------------------------------|--------------------------|
|-------------------x3----------|--------------------------|
|-------------------------------|--------------------------|
|-4-4-4--4-5-5-5-4-5-5-5--9-7-9-|-1-1-1-3-2-1-1--1-1-3-2-1-|
|-4-4-4--4-5-5-5-4-5-5-5--9-7-9-|-1-1-1-3-2-1-1--1-1-3-2-1-|
|-4-4-4--4-5-5-5-4-5-5-5--9-7-9-|-1-1-1-3-2-1-1--1-1-3-2-1-|

Pre-Chorus
|-------------------------------------------|
|-------------------------------------------|
|-6-6-6-6--11-11-11-11-4-4-4-4--------------|
|-4-4-4-4--9--9--9--9--2-2-2-2--12-12-12-12-|
|-4-4-4-4--9--9--9--9--2-2-2-2--12-12-12-12-|
|-4-4-4-4--9--9--9--9--2-2-2-2--12-12-12-12-|(Not exact strumming pattern)

|---------------------------------------|
|---------------------------------------|
|-6-6-6-6--11-11-11-11-4-4-4-4--7-7-7-7-|
|-4-4-4-4--9--9--9--9--2-2-2-2--x-x-x-x-|
|-4-4-4-4--9--9--9--9--2-2-2-2--5-5-5-5-|
|-4-4-4-4--9--9--9--9--2-2-2-2----------|

|-------------------------|
|-------------------------|
|-------------------------|
|-5-5-5--5-5-5-5--5-5-5-5-|
|-5-5-5--5-5-5-5--5-5-5-5-|
|-5-5-5--5-5-5-5--5-5-5-5-|
P.M.... ....... .......

Chorus
|---------------------------|
|---------------------------|
|---------------------------|
|-4--0--2-x-x-x-4--0--2-4-5-|
|-4--0--2-x-x-x-4--0--2-4-5-|
|-4--0--2-x-x-x-4--0--2-4-5-|

Play Verse

Play Pre-Chorus

Bridge
|-------------------------------------------------|
|-------------------------------------------------|
|-------------------------------------------------|
|-0-7-0-7-6-0-7-0-7-9-0-7-0-7-6-3-3-3-------------|
|-0-7-0-7-6-0-7-0-7-9-0-7-0-7-6-3-3-3-------------|
|-0-7-0-7-6-0-7-0-7-9-0-7-0-7-6-3-3-3-4-6-7-6-4-2-|
P.M. ...........

Play Intro

Play Pre-Chorus

Ending
|---------------------------------------|
|---------------------------------------|
|---------------------------------------|
|-5p3-3p2-3h5-4--0--2-x-x-x-4--0--2-5-7-|
|-5p3-3p2-3h5-4--0--2-x-x-x-4--0--2-5-7-|
|-5p3-3p2-3h5-4--0--2-x-x-x-4--0--2-5-7-|

End On
|--------------|
|--------------|
|--------------|
|-4~~~~~~~~~~~-|
|-4~~~~~~~~~~~-|
|-4~~~~~~~~~~~-|



[You must be registered and logged in to see this link.]


CrowX
Administrator
View user profile

7Ten Thousand Fists Guitar Tabs Empty Re: Ten Thousand Fists Guitar Tabs on Fri 06 Mar 2009, 16:26

CrowX

CrowX
Administrator
SONS OF PLUNDER GUITAR TAB

Tuning- C G C F A D

Intro
Guitar 1
|-----------------------------------------------------------------------|
|-----------------------------------------------------------------------|2x
|-----------------------------------------------------------------------|
|-----------------------------------------------------------------------|
|-----------------------------------------------------------------------|
|--3p0-0-5p0-0-3p0-0-3p0-0-5-0-3-5-3p0-0-5p0-0-3p0-0-3p0-0-6-5-3-5------|

Verse
Guitar 1
|-----------------------------------------------------------------------|
|-----------------------------------------------------------------------|
|-----------------------------------------------------------------------|4x
|-----------------------------------------------------------------------|
|-----------------------------------------------------------------------|
|--3p0-0-5p0-0-3p0-0-3p0-0-5-0-3-5-3p0-0-5p0-0-3p0-0-3p0-0-6-5-3-5------|
pm . . . . . . . . . . . . . . . . . . . . . . . . . . . . . . . .

Pre-Chorus
|--------------------------------------------|
|--------------------------------------------|
|--------------------------------------------|
|--0--6--0--3--0--6--0--6--3--5--3--6--5--3--|
|--0--6--0--3--0--6--0--6--3--5--3--6--5--3--|
|--0--6--0--3--0--6--0--6--3--5--3--6--5--3--|


|--------------------------------------------|
|--------------------------------------------|
|--------------------------------------------|
|-------6--0--3--0--6--0--6--3--5--3--6--0---|
|-0-0-0-6--0--3--0--6--0--6--3--5--3--6--0---|
|-0-0-0-6--0--3--0--6--0--6--3--5--3--6--0---|
pm. . .

Chorus
Guitar 1
16x 16x 16x 16x
|--------------------------------------------|
|--------------------------------------------|
|--------------------------------------------|
|--12-------7--------8--------10-------------|
|--12-------7--------8--------10-------------|
|--12-------7--------8--------10-------------|

Guitar 2
|--------------------------------------------|
|--------------------------------------------|
|--7--9-10--9--7--5--7--9-10--12-10--5-------|
|--x--x--x--x--x--x--x--x--x---x--x--x-------|
|--5--7--8--7--5--3--5--7--8--10--8--3-------|
|--------------------------------------------|

Guitar 1
|----------------------------------------------------------|
|----------------------------------------------------------|
|----------------------------------------------------------|
|--12-------7--------8----8--3/5-5-5-x-3/5-5-5-x-3-5-------|
|--12-------7--------8----8--3/5-5-5-x-3/5-5-5-x-3-5-------|
|--12-------7--------8----8--3/5-5-5-x-3/5-5-5-x-3-5-------|

Guitar 2
|----------------------------------------------------------|
|----------------------------------------------------------|
|--7--9-10--9--7--5--8----8--3/5-5-5-x-3/5-5-5-x-3-5-------|
|--x--x--x--x--x--x--8----8--3/5-5-5-x-3/5-5-5-x-3-5-------|
|--5--7--8--7--5--3--8----8--3/5-5-5-x-3/5-5-5-x-3-5-------|
|----------------------------------------------------------|

Verse 2
Lead In
Guitar 1
|-------------------------------------|
|-------------------------------------|
|-------------------------------------|
|-------------------------------------|
|-------------------------------------|
|--3p0-0-5p0-0-3p0-0-3p0-0-5-0-3-5----|
pm . . . . . . . . . . . . . . . .

Guitar 1
|------------------------------------------------------|
|------------------------------------------------------|
|------------------------------------------------------|
|--------------------------2-------------------------2-|
|--0-0-0-0-0-00-0-0-0-0-00-2-0-0-0-0-0-00-0-0-0-0-00-2-|
|--0-0-0-0-0-00-0-0-0-0-00-2-0-0-0-0-0-00-0-0-0-0-00-2-|
pm . . . . . .. . . . . . . . . . . . .. . . . . ..

Guitar 1
|-----------------------------------------------------------------------|
|-----------------------------------------------------------------------|
|-----------------------------------------------------------------------|2x
|-----------------------------------------------------------------------|
|-----------------------------------------------------------------------|
|--3p0-0-5p0-0-3p0-0-3p0-0-5-0-3-5-3p0-0-5p0-0-3p0-0-3p0-0-6-5-3-5------|

Pre-Chorus

Chorus

Bridge
Here's the Bass line translated to guitar to help describe the timing
|---------------------------------------------------|
|---------------------------------------------------|
|---------------------------------------------------|
|----3---2---2---3---2-0-----3---2---2---3---2---5--|
|------------------------3--------------------------|
|--0---0---0---0---0-------0---0---0---0---0---0----|

Guitar 1
|----------------------------------------------------|
|----------------------------------------------------|
|--2~~~~~~~~~~~~~~~~~~~~~~~2~~~~~~~~~~~~~~~~~~~~~~~~~
|--0~~~~~~~~~~~~~~~~~~~~~~~0~~~~~~~~~~~~~~~~~~~~~~~~~
|--0~~~~~~~~~~~~~~~~~~~~~~~0~~~~~~~~~~~~~~~~~~~~~~~~~
|--0~~~~~~~~~~~~~~~~~~~~~~~0~~~~~~~~~~~~~~~~~~~~~~~~~

|---------------------------------------------------|
|---------------------------------------------------|
|---------------------------------------------------|
|----3---2---2---3---2-0-----3---2---2---3---2---5--|
|------------------------3--------------------------|
|--0---0---0---0---0-------0---0---0---0---0---0----|

|---------------------------------------------------|
|---------------------------------------------------|
|~~~~~~~~~~~~~~~~~~~~~~~~~~~~~~~~~~~~~~~~~~~~~~~~~~~|
|~~~~~~~~~~~~~~~~~~~~~~~~~~~~~~~~~~~~~~~~~~~~~~~~~~~|
|~~~~~~~~~~~~~~~~~~~~~~~~~~~~~~~~~~~~~~~~~~~~~~~~~~~|
|~~~~~~~~~~~~~~~~~~~~~~~~~~~~~~~~~~~~~~~~~~~~~~~~~~~|

Part II
|---------------------------------------------------------------------------|
|---------------------------------------------------------------------------|
|---------------------------------------------------------------------------|
|-------------------------------------------------------------------12-11---|
|--0-10h12-0-12h13-0-10h12-0-12h13-0-8h10-0-10h12-0-12h13-0-10h12-0-10--9-0-|
|--0-10h12-0-12h13-0-10h12-0-12h13-0-8h10-0-10h12-0-12h13-0-10h12-0-------0-|
pm . . . . . . . . .

|----------------------------------------------------------------------|
|----------------------------------------------------------------------|
|----------------------------------------------------------------------|2x
|----------------------------------------------8--8/13--13--8----------|
|-13p12-0-10h12-0-12h13-0-10h12-0-12h13-0-8h10-8--8/13--13--8----------|
|-13p12-0-10h12-0-12h13-0-10h12-0-12h13-0-8h10-8--8/13--13--8----------|
pm . . . .

Last Chorus

Guitar 1
16x 16x 16x 16x
|--------------------------------------------|
|--------------------------------------------|
|--------------------------------------------|
|--12-------7--------8--------10-------------|
|--12-------7--------8--------10-------------|
|--12-------7--------8--------10-------------|

Guitar 2
|--------------------------------------------|
|--------------------------------------------|
|--7--9-10--9--7--5--7--9-10--12-10--5-------|
|--x--x--x--x--x--x--x--x--x---x--x--x-------|
|--5--7--8--7--5--3--5--7--8--10--8--3-------|
|--------------------------------------------|

Guitar 1
|----------------------------------------------------------|
|----------------------------------------------------------|
|----------------------------------------------------------|
|--12-------7--------8----8--3/5-5-5-x-3/5-5-5-x-3-5-------|
|--12-------7--------8----8--3/5-5-5-x-3/5-5-5-x-3-5-------|
|--12-------7--------8----8--3/5-5-5-x-3/5-5-5-x-3-5-------|

Guitar 2
|--------------------------------------------------------------|
|--------------------------------------------------------------|
|--7--9-10--9--7--5--8----8--3/5-5-5-x-3/5-5-5-x---------------|
|--x--x--x--x--x--x--8----8--3/5-5-5-x-3/5-5-5-x---------------|
|--5--7--8--7--5--3--8----8--3/5-5-5-x-3/5-5-5-x-0-0-0-3-------|
|--------------------------------------------------------5-4-3-|
pm . . . . . .

Guitar 1
16x 16x 16x 16x
|--------------------------------------------|
|--------------------------------------------|
|--------------------------------------------|
|--12-------7--------8--------10-------------|
|--12-------7--------8--------10-------------|
|--12-------7--------8--------10-------------|

Guitar 2
|--------------------------------------------|
|--------------------------------------------|
|--7--9-10--9--7--5--7--9-10--12-10--5-------|
|--x--x--x--x--x--x--x--x--x---x--x--x-------|
|--5--7--8--7--5--3--5--7--8--10--8--3-------|
|--------------------------------------------|

Guitar 1
|----------------------------------------------------------|
|----------------------------------------------------------|
|----------------------------------------------------------|
|--12-------7--------8----8--3/5-5-5-x-3/5-5-5-x-3-5-------|
|--12-------7--------8----8--3/5-5-5-x-3/5-5-5-x-3-5-------|
|--12-------7--------8----8--3/5-5-5-x-3/5-5-5-x-3-5-------|

Guitar 2
|----------------------------------------------------------|
|----------------------------------------------------------|
|--7--9-10--9--7--5--8----8--3/5-5-5-x-3/5-5-5-x-3-5-------|
|--x--x--x--x--x--x--8----8--3/5-5-5-x-3/5-5-5-x-3-5-------|
|--5--7--8--7--5--3--8----8--3/5-5-5-x-3/5-5-5-x-3-5-------|
|----------------------------------------------------------|

Outro
Guitar 1
|-----------------------------------------------------------------------|
|-----------------------------------------------------------------------|
|-----------------------------------------------------------------------|2x
|-----------------------------------------------------------------------|
|-----------------------------------------------------------------------|
|--3p0-0-5p0-0-3p0-0-3p0-0-5-0-3-5-3p0-0-5p0-0-3p0-0-3p0-0-6-5-3-5------|
pm . . . . . . . . . . . . . . . . . . . . . . . . . . . . . . . .

Guitar 1
|-----------------------------------------------------------------------|
|-----------------------------------------------------------------------|
|-----------------------------------------------------------------------|2x
|-----------------------------------------------------------------------|
|-----------------------------------------------------------------------|
|--3p0-0-5p0-0-3p0-0-3p0-0-5-0-3-5-3p0-0-5p0-0-3p0-0-3p0-0-6-5-3-5------|



[You must be registered and logged in to see this link.]


CrowX
Administrator
View user profile

8Ten Thousand Fists Guitar Tabs Empty Re: Ten Thousand Fists Guitar Tabs on Fri 06 Mar 2009, 16:27

CrowX

CrowX
Administrator
OVERBURDENED GUITAR TAB

Tuning- Drop C
Intro- the song begins with a cool bass lick that he repeats then the guitar comes
in with this.
|----------------------------------------------|
|----------------------------------------------|
|----------------------------------------------|
|-0~~~~~~-------0-0------0~~~~~----9----6------|
|-0~~~~~~-------0-0------0~~~~~----9----6------|
|-0~~~~~~-------0-0------0~~~~~----9----6--12/-|
P.M. ...

Verse
|--------------------------------------------------|
|--------------------------------------------------|
|--------------------------------------------------|
|-0--0-0--0--0-0-0--0-3-5--0--0-0--0--0-0-0--5-5-0-|
|-0--0-0--0--0-0-0--0-3-5--0--0-0--0--0-0-0--5-5-0-|
|-0--0-0--0--0-0-0--0-3-5--0--0-0--0--0-0-0--5-5-0-|
P.M. ... . ..... ..... ... . ..... ...

|------------------------------|
|------------------------------|
|------------------------------|
|-0-0--0--0-0-0--0-3-5--9----6-|
|-0-0--0--0-0-0--0-3-5--9----6-|
|-0-0--0--0-0-0--0-3-5--9----6-|
P.M.. . ..... .....

Pre-Chorus-with wah pedal
|------------------------------|
|------------------------------|
|------------------------------|
|------------------------------|
|-7-10-7-9-7-5-7--7-10-7-9-7-5-|
|------------------------------|

Chorus
|------------------------------------------|
|------------------------------------------|
|------------------------------------------|
|-0-0-6--0--3-3--0-3-5--0-0-6--0--3--5-5-3-|
|-0-0-6--0--3-3--0-3-5--0-0-6--0--3--5-5-3-|
|-0-0-6--0--3-3--0-3-5--0-0-6--0--3--5-5-3-|
P.M.. ...

|---------------------------------------------|
|---------------------------------------------|
|---------------------------------------------|
|-0-0-6--0--3-3--0-3-5-6-6-6--8-6-9-9-9-9-9-9-|
|-0-0-6--0--3-3--0-3-5-6-6-6------9-9-9-9-9-9-|
|-0-0-6--0--3-3--0-3-5-6-6-6------9-9-9-9-9-9-|
P.M.. .....

Fill
|--------------------------|--------|
|------------x2------------|--------|
|--------------------------|--------|
|-0--0-0--0--0-0-0--0-0--0-|-9----6-|
|-0--0-0--0--0-0-0--0-0--0-|-9----6-|
|-0--0-0--0--0-0-0--0-0--0-|-9----6-|
P.M ... . ..... ...

Verse 2
|-------------------------------------------------|
|-------------------------------------------------|
|-------------------------------------------------|
|-0--0-0--0--0-0-0--0-3-5-0--0-0--0--0-0-0--5-5-3-|
|-0--0-0--0--0-0-0--0-3-5-0--0-0--0--0-0-0--5-5-3-|
|-0-----------------------0-----------------------|

|--------------------------------------------------|
|--------------------------------------------------|
|--------------------------------------------------|
|-0--0-0--0--0-0-0--0-3-5--9-9-9-9-9-9-6-6-6-6-6-6-|
|-0--0-0--0--0-0-0--0-3-5--9-9-9-9-9-9-6-6-6-6-6-6-|
|-0------------------------9-9-9-9-9-9-6-6-6-6-6-6-|

Play Pre-Chorus

Play Chorus



[You must be registered and logged in to see this link.]


CrowX
Administrator
View user profile

9Ten Thousand Fists Guitar Tabs Empty Re: Ten Thousand Fists Guitar Tabs on Fri 06 Mar 2009, 16:28

CrowX

CrowX
Administrator
DECADENCE GUITAR TAB


Tuning- C G C F A D

Intro- Fade in
|------------------------------------|------------------------------------|
|------------------------------------|------------------------------------|
|------------------------------------|------------------------------------|2x
|------------------------------------|------------------------------------|
|--------------5-------3-------2-----|--------------5-------3-------5-----|
|--3-2-0-2-0-2---2-0-2---2-0-2---2---|--3-2-0-2-0-2---2-0-2---2-0-2---2---|

Intro- Heavy Distortion
|------------------------------------|------------------------------------|
|------------------------------------|------------------------------------|
|------------------------------------|------------------------------------|2x
|--------------5-------3-------2-----|--------------5-------3-------5-----|
|--3-2-0-2-0-2---2-0-2---2-0-2---2---|--3-2-0-2-0-2---2-0-2---2-0-2---2---|
|--3-2-0-2-0-2---2-0-2---2-0-2---2---|--3-2-0-2-0-2---2-0-2---2-0-2---2---|

Verse
|--------------------------------|-------------------------------|
|--------------------------------|-------------------------------|
|--------------------------------|-------------------------------|
|--------------------------------|-------------------------------|
|--------------------------------|-------------------------------|
|--222-0-2-0-2-222-0-2-0-2-3-2-0-|-222-0-2-0-2-222-0-2-0-2-3-2-0-|
pm ... . . . . ... . . . . . . . ... . . . . ... . . . . . . .
2x

|--------------------------------|-------------------------------|
|--------------------------------|-------------------------------|
|--------------------------------|-------------------------------|
|--------------------------------|-------------------------------|
|--------------------------------|-------------5-------3-------5-|
|--222-0-2-0-2-222-0-2-0-2-3-2-0-|-222-0-2-0-2---2-0-2---2-0-2-5-|
pm ... . . . . ... . . . . . . . ... . . . . . . . . . .

Chorus
|---------------------------------------------|
|---------------------------------------------|
|--------------------------------------4-5-4--|
|--2--2--10--10--10--10-10-4-4-4-4-4-4--------|
|--2--2--10--10--10--10-10-4-4-4-4-4-4--------|
|--2--2--10--10--10--10-10-4-4-4-4-4-4--------|

|--------------------------------------------|
|--------------------------------------------|
|-------------------------------------4---7--|
|--2--2--10--10--10--10-10-4--4--4----x---x--|
|--2--2--10--10--10--10-10-4--4--4-44-2-0-5--|
|--2--2--10--10--10--10-10-4--4--4-44---0----|
pm .. .

|---------------------------------------------|
|---------------------------------------------|
|--------------------------------------4-5-4--|
|--2--2--10--10--10--10-10-4-4-4-4-4-4--------|
|--2--2--10--10--10--10-10-4-4-4-4-4-4--------|
|--2--2--10--10--10--10-10-4-4-4-4-4-4--------|

|-------------------------------------------------------------|
|-------------------------------------------------------------|
|-------------------------------------------------------------|
|--2--2--0--0--0-0-0--10-10-10-10-10-10-10-10-10-10-10-10-10--|
|--2--2--0--0--0-0-0--10-10-10-10-10-10-10-10-10-10-10-10-10--|
|--2--2--0--0--0-0-0--10-10-10-10-10-10-10-10-10-10-10-10-10--|

Post Chorus
|------------------------------------|------------------------------------|
|------------------------------------|------------------------------------|
|------------------------------------|------------------------------------|
|------------------------------------|------------------------------------|
|--------------5-------3-------2-----|--------------5-------3-------5-----|
|--3-2-0-2-0-2---2-0-2---2-0-2---2---|--3-2-0-2-0-2---2-0-2---2-0-2---2---|

|------------------------------------|------------------------------------|
|------------------------------------|------------------------------------|
|------------------------------------|------------------------------------|
|------------------------------------|------------------------------------|
|--------------5-------3-------2-----|--------------5-------3-------5-----|
|--3-2-0-2-0-2---2-0-2---2-0-2---2---|--3-2-0-2-0-2---2-0-2---2-0-2-5-----|

Verse 2x

Chorus

Bridge
|-------------------------------------------------|
|-------------------------------------------------|
|-------------------------------------------------|
|--14\\2-3-2-x-2-3-2-----14\\2-3-2-7-8-7-x-3-3----|
|--14\\2-3-2-x-2-3-2-2-2-14\\2-3-2-7-8-7-x-3-3----|
|--14\\2-3-2-x-2-3-2-2-2-14\\2-3-2-7-8-7-x-3-3----|
pm . .
4x

|-------------------------------------------------|
|-------------------------------------------------|
|-------------------------------------------------|
|--14\\2-3-2-x-2-3-2-----14\\2-3-2-7-8-7-x-10-10--|
|--14\\2-3-2-x-2-3-2-2-2-14\\2-3-2-7-8-7-x-10-10--|
|--14\\2-3-2-x-2-3-2-2-2-14\\2-3-2-7-8-7-x-10-10--|
pm . .

Last Chorus
|-----------------------------------------------|
|-----------------------------------------------|
|--------------------------------------4-5-4----|
|--2--2--10--10--10--10-10-4-4-4-4-4-4----------|
|--2--2--10--10--10--10-10-4-4-4-4-4-4----------|
|--2--2--10--10--10--10-10-4-4-4-4-4-4----------|

|-----------------------------------------------|
|-----------------------------------------------|
|-------------------------------------4---------|
|--2--2--10--10--10--10-10-4--4--4----x---------|
|--2--2--10--10--10--10-10-4--4--4-44-2-0-0-0-0-|
|--2--2--10--10--10--10-10-4--4--4-44---0-0-0-0-|
pm .. . . . .

|-----------------------------------------------|
|-----------------------------------------------|
|--------------------------------------4-5-4----|
|--2--2--10--10--10--10-10-4-4-4-4-4-4----------|
|--2--2--10--10--10--10-10-4-4-4-4-4-4----------|
|--2--2--10--10--10--10-10-4-4-4-4-4-4----------|

|-------------------------------------------------------------|
|-------------------------------------------------------------|
|-------------------------------------------------------------|
|--2--2--0--0--0-0-0--10-10-10-10-10-10-10-10-10-10-10-10-10--|
|--2--2--0--0--0-0-0--10-10-10-10-10-10-10-10-10-10-10-10-10--|
|--2--2--0--0--0-0-0--10-10-10-10-10-10-10-10-10-10-10-10-10--|

|-----------------------------------------|
|-----------------------------------------|
|-----------------------------------------|
|-10-10-10-10-10-10-10-10-10~~~~~~~~~~~~--|
|-10-10-10-10-10-10-10-10-10~~~~~~~~~~~~--|
|-10-10-10-10-10-10-10-10-10~~~~~~~~~~~~--|

Outro
|------------------------------------|------------------------------------|
|------------------------------------|------------------------------------|
|------------------------------------|------------------------------------|
|------------------------------------|------------------------------------|
|--------------5-------3-------2-----|--------------5-------3-------5-----|
|--3-2-0-2-0-2---2-0-2---2-0-2---2---|--3-2-0-2-0-2---2-0-2---2-0-2---2---|

|------------------------------------|------------------------------------|
|------------------------------------|------------------------------------|
|------------------------------------|------------------------------------|
|------------------------------------|------------------------------------|
|--------------5-------3-------2-----|--------------5-------3-------5-----|
|--3-2-0-2-0-2---2-0-2---2-0-2---2---|--3-2-0-2-0-2---2-0-2---2-0-2-5-----|

|------------------------------------|------------------------------------|
|------------------------------------|------------------------------------|
|------------------------------------|------------------------------------|
|------------------------------------|------------------------------------|
|--------------5-------3-------2-----|--------------5-------3-------5-----|
|--3-2-0-2-0-2---2-0-2---2-0-2---2---|--3-2-0-2-0-2---2-0-2---2-0-2---2---|
pm . . . . . . . . . . . . . . . . . . . . . . . . . .

|------------------------------------|------------------------------------|
|------------------------------------|------------------------------------|
|------------------------------------|------------------------------------|
|------------------------------------|------------------------------------|
|--------------5-------3-------2-----|--------------5-------3-------5-----|
|--3-2-0-2-0-2---2-0-2---2-0-2---2---|--3-2-0-2-0-2---2-0-2---2-0-2-5-----|
pm . . . . . . . . . . . . .



[You must be registered and logged in to see this link.]


CrowX
Administrator
View user profile

10Ten Thousand Fists Guitar Tabs Empty Re: Ten Thousand Fists Guitar Tabs on Fri 06 Mar 2009, 16:28

CrowX

CrowX
Administrator
FORGIVEN GUITAR TAB

Tuning- Drop C

Intro
|---------------------------------------|
|---------------------------------------|
|---------------------------------------|
|-----------------------3-3-3-8-8-8-8-8-|
|-7-5-7-5-7-7-5-7-5-7-7-3-3-3-8-8-8-8-8-|
|-7-5-7-5-7-7-5-7-5-7-7-3-3-3-8-8-8-8-8-|(Play 3's and 8' open last time)
P.M....................................

|---------------------------------------|
|---------------------------------------|
|---------------------------------------|
|-----------------------3-3-3-8-8-8-8-8-|
|-7-5-7-5-7-7-5-7-5-7-7-3-3-3-8-8-8-8-8-|
|-7-5-7-5-7-7-5-7-5-7-7-3-3-3-8-8-8-8-8-|

Guitar 2
|--------------------------------------------|
|--------------------------------------------|
|-----------------------5-5-5-10-10-10-10-10-|
|-----------------------x-x-x-x--x--x--x--x--|
|-7-5-7-5-7-7-5-7-5-7-7-3-3-3-8--8--8--8--8--|
|-7-5-7-5-7-7-5-7-5-7-7----------------------|

Verse
|---------------------------------------|
|---------------------------------------|
|---------------------------------------|
|-----------------------3-3-3-8-8-8-8-8-|
|-7-5-7-5-7-7-5-7-5-7-7-3-3-3-8-8-8-8-8-|
|-7-5-7-5-7-7-5-7-5-7-7-3-3-3-8-8-8-8-8-|(Play 2 times)
P.M....................................

|-------|
|-------|
|-------|
|----5*-|
|-5*----|
|-------|(After the harmonics play the other verse part w/o P.M.)

Chorus
|-----------------------------------------|
|-----------------------------------------|
|-----------------------------------------|
|-3-x-x-3-0-7---------------5h7p5---------|
|-3-x-x-3-0-7-5h7-7-0-0-5h7-------7p5-----|
|-3-x-x-3-0-7-5h7-7-0-0---------------7p5-|
P.M. ...

|-----------------------------------|
|-----------------------------------|
|-----------------------------------|
|-3-x-x-3-8-7-----------------------|
|-3-x-x-3-8-7-5h7-7p5-5h7-7p5-5-7-8-|
|-3-x-x-3-8-7-5h7-7p5-5h7-7p5-5-7-8-|

|-----------------------------------------|
|-----------------------------------------|
|-----------------------------------------|
|-3-x-x-3-0-7---------------5h7p5---------|
|-3-x-x-3-0-7-5h7-7-0-0-5h7-------7p5-----|
|-3-x-x-3-0-7-5h7-7-0-0---------------7p5-|
P.M. ...

|---------------------------|
|---------------------------|
|-7-7-7-7-7-7-7-------------|
|-5-5-5-5-5-5-5-3-2-0-2-3-5-|
|-5-5-5-5-5-5-5-3-2-0-2-3-5-|
|-5-5-5-5-5-5-5-3-2-0-2-3-5-|

Play Intro

Play Verse

Play Chorus

Bridge
|----------|
|----------|
|----------|
|-7~~~~~~~-|
|-7~~~~~~~-|
|-7~~~~~~~-|

|-----------------------------------------|
|-----------------------------------------|
|-----------------------------------------|
|-7-7-7-7-7-3-3-3-3-3-8-8-8-8-8-2-2-2-2-2-|
|-7-7-7-7-7-3-3-3-3-3-8-8-8-8-8-2-2-2-2-2-|
|-7-7-7-7-7-3-3-3-3-3-8-8-8-8-8-2-2-2-2-2-|
P.M......................................

Solo Build-Up
|---------------|
|---------------|
|---------------|
|-2-2-2-2-2-2-2-|
|-2-2-2-2-2-2-2-|
|-2-2-2-2-2-2-2-|
P.M....

Solo Backing
(Play intro part with a few variations that you should be able to figure out)

Play Chorus

Last Chorus Ending
|-------------------------------|
|-------------------------------|
|-------------------------------|
|-----------------5h7p5---------|
|-3p2-3p2-3p2-5h7-------7p5-----|
|-3p2-3p2-3p2---------------7p5-|

Ending
|--------------------------------------------------|
|--------------------------------------------------|
|--------------------------------------------------|
|-----------------------3-x-3-x-3-8-x-8-x-8-x-8-10-|
|-7-5-7-5-7-7-5-7-5-7-7-3-x-3-x-3-8-x-8-x-8-x-8-10-|
|-7-5-7-5-7-7-5-7-5-7-7-3-x-3-x-3-8-x-8-x-8-x-8-10-|

End On
|---------------|
|---------------|
|---------------|
|-7~~~~~~~~~~~~-|
|-7~~~~~~~~~~~~-|
|-7~~~~~~~~~~~~-|



[You must be registered and logged in to see this link.]


CrowX
Administrator
View user profile

11Ten Thousand Fists Guitar Tabs Empty Re: Ten Thousand Fists Guitar Tabs on Fri 06 Mar 2009, 16:29

CrowX

CrowX
Administrator
LAND OF CONFUSION GUITAR TAB

Tuning- Drop C

Intro
|----------------------------------|
|----------------------------------|
|----------------------------------|
|-5-7-5-5-5-5-7-5--5-7-5-5-5-5-7-5-|
|-5-7-5---5-5-7-5--5-7-5---5-5-7-5-|
|-5-7-5---5-5-7-5--5-7-5---5-5-7-5-|

Verse
|-------------------------------------------------|
|-------------------------------------------------|
|-------------------------------------------------|
|-5-7/--------------------7-9/--------------------|
|-5-7/-5-5--5-5-5-5-5-5-5-7-9/-7-7--7-7-7-7-7-7-7-|
|-5-7/-5-5--5-5-5-5-5-5-5-7-9/-7-7--7-7-7-7-7-7-7-|
P.M. ... ............. ... .............

|------------------------------------------------|
|------------------------------------------------|
|------------------------------------------------|
|-9-11/------------------5-7/--------------------|
|-9-11/-9-9--9-9-9-9-9-9-5-7/-5-5--5-5-5-5-5-5-5-|
|-9-11/-9-9--9-9-9-9-9-9-5-7/-5-5--5-5-5-5-5-5-5-|
P.M. ... ........... ... .............

Pre-Chorus
|--------------------------------|
|--------------------------------|
|--------------------------------|
|-0--2---5--7---0--2---5--0------|
|-0--2---5--7---0--2---5--0--12/-|
|-0--2---5--7---0--2---5--0--12/-|

Chorus
|-------------------|
|-------------------|
|-7-7-8-8-----------|
|-x-x-x-x-7-7--3--5-|
|-5-5-6-6-7-7--3--5-|
|---------7-7--3--5-|

Play Intro

Play Verse

Play Pre-Chorus

Play Chorus

Play Intro

Bridge
|------------------------------------|
|------------------------------------|
|------------------------------------|
|------------------------------------|
|-7-9-10-7-9-10-7-9-10-6-7-9-5-7-5-3-|
|------------------------------------|

|-------------------------------------|
|-------------------------------------|
|-------------------------------------|
|-------------------------------------|
|-7-9-10-7-9-10-7-9-10-6-7-9-5-7-5-10-|
|-------------------------------------|

|-------------------------|
|-------------------------|
|-------------------------|
|-5-5-5-4-4-4-7-7-7-9-9-9-|
|-5-5-5-4-4-4-7-7-7-9-9-9-|
|-5-5-5-4-4-4-7-7-7-9-9-9-|

|----------------------------------------|
|----------------------------------------|
|----------------------------------------|
|-7~-------------------------------------|
|-7~--7-7--7-7-7-7-7-7--7-7--7-7-7-7-7-7-|
|-7~--7-7--7-7-7-7-7-7--7-7--7-7-7-7-7-7-|(Play the 7's open after 2 times)
P.M. ... ........... ... ...........

|----|
|----|
|----|
|-5~-|
|-5~-|
|-5~-|

Play Verse

Play Pre-Chorus

Play Chorus

Play Intro(to end)



[You must be registered and logged in to see this link.]


CrowX
Administrator
View user profile

12Ten Thousand Fists Guitar Tabs Empty Re: Ten Thousand Fists Guitar Tabs on Fri 06 Mar 2009, 16:31

CrowX

CrowX
Administrator
SACRED LIE GUITAR TAB

-Tuning is: Drop C (All strings 1 step down, bass string an extra step on top of that)

------C G C F A D (low to high)------
Repeat Last time
D|--------|---------------------------------|
A|--------|---------------------------------|
F|--------|---------------------------------|
C|--------|---------------------------------|
G|--3-<5>-|-3-<5>--3-<5>--3-<5>------5-3----|
C|--------|----------------------3-5-----3--|


---Intro Part 2---


D|----------------------------|------------------------------|
A|----------------------------|------------------------------|
F|----------------------------|------------------------------|
C|----------------------------|-----------------6-------6-6--|
G|-6-5---5--5-5--5-5--6-5-6-8-|-6-5---5--5-5--5-x---0-5-x-x--|
C|-0-0---0--0-0--0-0--0-0-0-0-|-0-0---0--0-0--0-6---0-0-6-6--|



D|----------------------------|------------------------------|
A|----------------------------|------------------------------|
F|----------------------------|------------------------------|
C|----------------------------|------------------------------|
G|-6-5---5--5-5--5-5--6-5-6-8-|-6-5---5--5-5--0-3-5--5-0-3-5-|
C|-0-0---0--0-0--0-0--0-0-0-0-|-0-0---0--0-0--0-3-5--0-0-3-5-|





---Verse---

D|------------------------------------------------------------|
A|------------------------------------------------------------|
F|------------------------------------------------------------|
C|------------------------------------------------------------|
G|-5--5-6-5-3-5--3-3--3-3--5-6-5--5-6-5-3-5--3-3-0-6-6-0-3-5--|
C|-0--0-0-0-0-0--0-0--0-0--0-0-0--0-0-0-0-0-------------------|
. . . . . . . . . . . . . . . . . .


D|------------------------------------------------------------|
A|------------------------------------------------------------|
F|------------------------------------------------------------|
C|-------------------------------------------1-----------1--0-|
G|-5--5-6-5-3-5--3-3--3-3--5-6-5--5-6-5-3-5--1--1-1-1-1--1--0-|
C|-0--0-0-0-0-0--0-0--0-0--0-0-0--0-0-0-0-0--1--1-1-1-1--1--0-|
. . . . . . . . . . . . . . . . . . . . . .



D|------------------------------------------------------------|
A|------------------------------------------------------------|
F|------------------------------------------------------------|
C|------------------------------------------------------------|
G|-5--5h6p5-3-5--3-3--3-3--5h6-5--5h6p5-3-5--3-3-0-6-6-0-3-5--|
C|-0--0-0-0-0-0--0-0--0-0--0-0-0--0-0-0-0-0-------------------|



D|------------------------------------------------------------|
A|------------------------------------------------------------|
F|------------------------------------------------------------|
C|-------------------------------------------1-----------1--0-|
G|-5--5h6p5-3-5--3-3--3-3--5h6-5--5h6p5-3-5--1--1-1-1-1--1--0-|
C|-0--0-0-0-0-0--0-0--0-0--0-0-0--0-0-0-0-0--1--1-1-1-1--1--0-|




---Chorus---
* = Strum as needed


* * * * * * 4 Times 4 Times
D|-5-------------------|-5--------------------|-5-------------------|-------|---------------------|
A|-x-------------------|-x--------------------|-x-------------------|-------|---------------------|
F|-7---9-9--10--10--9--|-7---9-9--10--10--12--|-7---9-9--10--10--9--|-5-----|-3-------------------|
C|-7---7-7--8---x---x--|-7---7-7--8---x---x---|-7---7-7--8---10--9--|-5--5--|-3--3----------------|
G|-5---7-7--8---8---7--|-5---7-7--8---8---10--|-5---7-7--8---8---7--|-3--3--|-1--1----------------|
C|-0---7-7--8----------|-0---7-7--8-----------|-0---7-7--8----------|----5--|----3----------------|





Post Chorus Riff (The intro)


D|----------------------------|------------------------------|
A|----------------------------|------------------------------|
F|----------------------------|------------------------------|
C|----------------------------|-----------------6-------6-6--|
G|-6-5---5--5-5--5-5--6-5-6-8-|-6-5---5--5-5--5-x---0-5-x-x--|
C|-0-0---0--0-0--0-0--0-0-0-0-|-0-0---0--0-0--0-6---0-0-6-6--|



D|----------------------------|------------------------------|
A|----------------------------|------------------------------|
F|----------------------------|------------------------------|
C|----------------------------|------------------------------|
G|-6-5---5--5-5--5-5--6-5-6-8-|-6-5---5--5-5---------5-------|
C|-0-0---0--0-0--0-0--0-0-0-0-|-0-0---0--0-0--0-3-5--0-0-3-5-|
. . . . . . .






---Verse---

D|------------------------------------------------------------|
A|------------------------------------------------------------|
F|------------------------------------------------------------|
C|------------------------------------------------------------|
G|-5--5-6-5-3-5--3-3--3-3--5-6-5--5-6-5-3-5--3-3-0-6-6-0-3-5--|
C|-0--0-0-0-0-0--0-0--0-0--0-0-0--0-0-0-0-0-------------------|
. . . . . . . . . . . . . . . . . .


D|------------------------------------------------------------|
A|------------------------------------------------------------|
F|------------------------------------------------------------|
C|-------------------------------------------1-----------1--0-|
G|-5--5-6-5-3-5--3-3--3-3--5-6-5--5-6-5-3-5--1--1-1-1-1--1--0-|
C|-0--0-0-0-0-0--0-0--0-0--0-0-0--0-0-0-0-0--1--1-1-1-1--1--0-|
. . . . . . . . . . . . . . . . . . . . . .



D|------------------------------------------------------------|
A|------------------------------------------------------------|
F|------------------------------------------------------------|
C|------------------------------------------------------------|
G|-5--5h6p5-3-5--3-3--3-3--5h6-5--5h6p5-3-5--3-3-0-6-6-0-3-5--|
C|-0--0-0-0-0-0--0-0--0-0--0-0-0--0-0-0-0-0-------------------|



D|------------------------------------------------------------|
A|------------------------------------------------------------|
F|------------------------------------------------------------|
C|-------------------------------------------1-----------1--0-|
G|-5--5h6p5-3-5--3-3--3-3--5h6-5--5h6p5-3-5--1--1-1-1-1--1--0-|
C|-0--0-0-0-0-0--0-0--0-0--0-0-0--0-0-0-0-0--1--1-1-1-1--1--0-|




---Chorus---
* = Strum as needed


* * * * * * 4 Times 4 Times
D|-5-------------------|-5--------------------|-5-------------------|-------|--------|
A|-x-------------------|-x--------------------|-x-------------------|-------|--------|
F|-7---9-9--10--10--9--|-7---9-9--10--10--12--|-7---9-9--10--10--9--|-5-----|-3------|
C|-7---7-7--8---x---x--|-7---7-7--8---x---x---|-7---7-7--8---10--9--|-5--5--|-3--3---|
G|-5---7-7--8---8---7--|-5---7-7--8---8---10--|-5---7-7--8---8---7--|-3--3--|-1--1---|
C|-0---7-7--8----------|-0---7-7--8-----------|-0---7-7--8----------|----5--|----3---|




---BreakDown---
NOTE: Only mute the E (C in this Tuning) and A (G in this Tuning) strings, always sound
the obiviously un-muted notes. Repeat as needed. Try using up Strokes on the unmuted
notes to get them to sound out much better then a downward as that note will be hit before
the muted string under it.

D|----------------------------|------------------------------|
A|----------------------------|------------------------------|
F|----------------------------|------------------------------|
C|----------------------------|-----------------6-------6-6--|
G|-6-5---5--5-5--5-5--6-5-6-8-|-6-5---5--5-5--5-x---0-5-x-x--|
C|-0-0---0--0-0--0-0--0-0-0-0-|-0-0---0--0-0--0-6---0-0-6-6--|



D|-----------------------------------------------------------|
A|-----------------------------------------------------------|
F|-----------------------------------------------------------|
C|--------------------6------5---------------6-----5-0-3-5---|
G|-5-6-5--5---5-6-5-3----3-5---5-6-5-3-5-6-5---3-5-----------|
C|-0-0-0------0-0-0-0----0-0---0-0---0-0-0-0---0-0-----------|
. . . . . . . . . . . . . . . . .

Last Time Through

D|-----------------------------------------------------------|
A|-----------------------------------------------------------|
F|-----------------------------------------------------------|
C|--------------------6------5---------------6-----5---------|
G|-5-6-5--5---5-6-5-3----3-5---5-6-5-3-5-6-5---3h5-----------|
C|-0-0-0------0-0-0-0----0-0---0-0---0-0-0-0-----------------|
. . . . . . . . . . . . . . .



---Chorus---
* = Strum as needed

* * * * * * 4 Times 4 Times
D|-5-------------------|-5--------------------|-5-------------------|-------|--------|
A|-x-------------------|-x--------------------|-x-------------------|-------|--------|
F|-7---9-9--10--10--9--|-7---9-9--10--10--12--|-7---9-9--10--10--9--|-5-----|-3------|
C|-7---7-7--8---x---x--|-7---7-7--8---x---x---|-7---7-7--8---10--9--|-5--5--|-3--3---|
G|-5---7-7--8---8---7--|-5---7-7--8---8---10--|-5---7-7--8---8---7--|-3--3--|-1--1---|
C|-0---7-7--8----------|-0---7-7--8-----------|-0---7-7--8----------|----5--|----3---|



NOTE: MUTE SOME NOTES WHILE STRUMMING THIS TIME.

* * * * * * 4 Times 4 Times
D|-5-------------------|-5--------------------|-5-------------------|-------|--------|
A|-x-------------------|-x--------------------|-x-------------------|-------|--------|
F|-7---9-9--10--10--9--|-7---9-9--10--10--12--|-7---9-9--10--10--9--|-5-----|-3------|
C|-7---7-7--8---10--9--|-7---7-7--8---10--12--|-7---7-7--8---10--9--|-5--5--|-3--3---|
G|-5---7-7--8---8---7--|-5---7-7--8---8---10--|-5---7-7--8---8---7--|-3--3--|-1--1---|
C|-0---7-7--8----------|-0---7-7--8-----------|-0---7-7--8----------|----5--|----3---|




---OUTRO---


D|----------------------------|----------------------------|
A|----------------------------|----------------------------|
F|----------------------------|----------------------------|
C|----------------------------|----------------------------|
G|-6-5---5--5-5--5-5--6-5-6-8-|-6-5---5--5-5--5-5--6-5-6-8-|
C|-0-0---0--0-0--0-0--0-0-0-0-|-0-0---0--0-0--0-0--0-0-0-0-|



D|----------------------------|----------------------------|
A|----------------------------|----------------------------|
F|----------------------------|----------------------------|
C|----------------------------|----------------------------|
G|-6-5---5--5-5--5-5--6-5-6-8-|-6-5---5--5-5---------------|
C|-0-0---0--0-0--0-0--0-0-0-0-|-0-0---0--0-0---------------|



[You must be registered and logged in to see this link.]


CrowX
Administrator
View user profile

13Ten Thousand Fists Guitar Tabs Empty Re: Ten Thousand Fists Guitar Tabs on Fri 06 Mar 2009, 16:32

CrowX

CrowX
Administrator
PAIN REDEFINED GUITAR TAB

Tuning - CGCFAD

Intro (guitar1 with delay effect)
D|---------------------|
A|---------------------|
F|---------------------|
C|---------------------| Not to sure on this bit.
G|-000-4--44-111-3--33-| Either way, Palm mute it.
C|-000-4--44-111-3--33-|


Pre-Verse (guitar1)
D|----------------------------|
A|----------------------------|
F|----------------------------|
C|----------------------------|
G|----------------------------|
C|-555-7-555-3-555-7-555-7562-| Palm mute this section.


Pre-Verse (guitar2)
D|---------------------------------|
A|---------------------------------|
F|-xxx-9-xxx-7-xx-5-xxx-3-xx-5-x-3-|
C|-xxx-x-xxx-x-xx-x-xxx-x-xx-x-x-x-|
G|-xxx-7-xxx-5-xx-3-xxx-1-xx-3-x-1-|
C|---------------------------------|

Verse (guitar1)
D|---------------------------------------------------------|
A|---------------------------------------------------------| Palm mute this.
F|---------------------------------------------------------|
C|---------------------------------------------------------|
G|---------------------------------------------------------|
C|-5-5-5--5-5-55-5-5-5--5-5-55-1-1-1--1-1-11-3-3-3--3-3-33-|

Verse (guitar2)
D|-----------------------------|
A|-----------------------------|
F|-7---9---5~----7---9-10---5~-|
C|-x---x---x~----x---x-x----x~-|
G|-5---7---3~----5---7-8----3~-|
C|-----------------------------|

Pre-Chorus (both guitars)
D|---------------------------------------------------------------------|
A|---------------------------------------------------------------------|
F|---------------------------------------------------------------------|
C|---------------------------------------------------------------------|
G|-5-8-5-5-5-5-5-555-5-10-5-5-5-5-5-555-5-12-5-5-5-5-5-555-3-3-3/8-8-8-|
C|-5-8-5-5-5-5-5-555-5-10-5-5-5-5-5-555-5-12-5-5-5-5-5-555-3-3-3/8-8-8-|

Chorus (guitar1)
D|----------------------------------|
A|----------------------------------|
F|----------------------------------|
C|-5-5-5-3-3-3-8-8-8-8-1-1-1-0-0-44-|
G|-5-5-5-3-3-3-8-8-8-8-1-1-1-0-0-44-|
C|-5-5-5-3-3-3-8-8-8-8-1-1-1-0-0-44-|

Chorus (guitar2)
D|----------------------------|
A|----------------------------|
F|-777-555-101010-333-555-----|
C|-xxx-xxx-x-x-x--xxx-xxx-----|
G|-555-333-8-8-8--111-333-----|
C|----------------------------|

Bridge (guitar2)
D|-----------------|
A|-----------------| I only have guitar2 figured out so far.
F|-5---6---5---7---| The rest will be up soon.
C|-x---x---x---x---|
G|-3---4---3---5---|
C|-----------------|

Bridge - Part 2 (both guitars)
D|-------------------------------------|
A|-------------------------------------|
F|-------------------------------------|
C|-5--3--8--3--5--3-5-3--8--3--5--33-3-|
G|-5--3--8--3--5--3-5-3--8--3--5--33-3-|
C|-5--3--8--3--5--3-5-3--8--3--5--33-3



[You must be registered and logged in to see this link.]


CrowX
Administrator
View user profile

14Ten Thousand Fists Guitar Tabs Empty Re: Ten Thousand Fists Guitar Tabs on Fri 06 Mar 2009, 16:33

CrowX

CrowX
Administrator
AVARICE GUITAR TAB

Tuning- Drop C

This is a very short song and has some very fast picking.In order to do it you have to
alternate your picking.

Intro(2's not 22's)
|-------------------------------------------------|
|-------------------------------------------------|
|-------------------------------------------------|
|-------------------------------------------------|
|-5p22222223p222222223p222222225p222223p223p223p2-|
|-------------------------------------------------|

Heavy Intro
|-----------------------------------------------------------|
|-----------------------------------------------------------|
|-----------------------------------------------------------|
|-12p99999-10p999999-10p9999999-12p999999-10p99-10p99-10p99-|
|-12p99999-10p999999-10p9999999-12p999999-10p99-10p99-10p99-|
|-12p99999-10p999999-10p9999999-12p999999-10p99-10p99-10p99-|

Verse
|------------------------------------|
|------------------------------------|
|------------------------------------|
|------------------------------------|
|-9-9-9--999--999-9-9-10p9-10p9-10p9-|x2
|-9-9-9--999--999-9-9-10p9-10p9-10p9-|
P.M.... ... ... . . .... .... ....

|---------------------------|
|---------------------------|
|---------------------------|
|-12-9-9--999--999--999-999-|
|-12-9-9--999--999--999-999-|
|-12-9-9--999--999--999-999-|

Chorus
|---------------------------------------|
|---------------------------------------|
|---------------------------------------|
|-7--6--3--4-6--7--6--3--4--6-0-0-0-0-0-|
|-7--6--3--4-4--7--6--3--4--6-0-0-0-0-0-|
|-7--6--3--4-4--7--6--3--4--6-0-0-0-0-0-|
P.M. .........

Play Heavy Intro

Play Verse

Play Chorus



[You must be registered and logged in to see this link.]


CrowX
Administrator
View user profile

15Ten Thousand Fists Guitar Tabs Empty Re: Ten Thousand Fists Guitar Tabs on Sun 08 Mar 2009, 23:10

Did you make these tabs your self? Or where did you get them from?

View user profile

16Ten Thousand Fists Guitar Tabs Empty Re: Ten Thousand Fists Guitar Tabs on Mon 09 Mar 2009, 00:50

Morbid Spawn

Morbid Spawn
One of The Ten Thousand
Problebly From Gutiartabs.com

View user profile

Sponsored content


View previous topic View next topic Back to top  Message [Page 1 of 1]

Permissions in this forum:
You cannot reply to topics in this forum

FacebookTwitterFacebookFacebook

 
  •  

Free forum | © PunBB | Free forum support | Contact | Report an abuse | Forumotion.com