The Sickness Drum Tabs


You are not connected. Please login or register

View previous topic View next topic Go down  Message [Page 1 of 1]

1 The Sickness Drum Tabs on Fri 06 Mar 2009, 15:54

Ravensclaw

avatar
Administrator
All The Drum Tabs From The Sickness

Voices

Note: 'X' on the cymbal line means use a louder ('crashier') cymbal
than 'x' when they appear together

Intro (begin quiet and build up)
C |----------------|----------------|----------------|----------------|
H |x---x---x---x---|x---x---x---x---|x---x---x---x---|x---x---x---x---|
S |----o-------o---|----o-------o---|----o-------o---|----o-------o---|
B |o-oo--oo--oo--oo|--oo--oo--oo-ooo|--oo--oo--oo--oo|--oo--oo--oo-ooo|

C |----------------|----------------|----------------|----------------|
H |x---x---x---x---|x---x---x---x---|x---x---x---x---|x---x---x-x-----|
S |----o-------o---|----o-------o---|----o-------o---|----o---o-o-oooo|
B |--oo--oo--oo--oo|--oo--oo--oo-ooo|--oo--oo--oo--oo|--oo--oo--------|

Main
C |X-x-X-x-x-x-X-x-|x-x-X-x-x-x-X-x-|x-x-X-x-x-x-X-x-|x---X-----X-----|
H |----------------|----------------|----------------|--x---x-x-------|
S |----o-------o---|----o-------o---|----o-------o---|----o-----o-oooo|
B |oo-o--oo-oo-----|oo-o--oo-oo-----|oo-o--oo-oo-----|oo-o--oo-o------|

C |X-x-X-x-x-x-X-x-|x-x-X-x-x-x-X-x-|x-x-X-x-x-x-X-x-|x---X-----X-----|
H |----------------|----------------|----------------|--x---x-x-------|
S |----o-------o---|----o-------o---|----o-------o---|----o-----o-ooo-|
B |oo-o--oo-oo-----|oo-o--oo-oo-----|oo-o--oo-oo-----|oo-o--oo-d------|

Verse 1
C |x---------------|----------------|----------------|----------x---x-|
H |--x-x-x-x-x-x-x-|x-x-x-x-x-x-x-x-|x-x-x-x-x-x-x-x-|x-x-x-x-x---x---|
S |----o-------o---|----o-------o---|----o-------o---|----o-----o---o-|
B |oo-o--oo-oo-----|oo-o--oo-oo-----|oo-o--oo-oo-----|oo-o--oo-o--o---|

C |----------------|----------------|----------------|----------------|
H |x-x-x-x-x-x-x-x-|x-x-x-x-x-x-x-x-|x-x-x-x-x-x-x-x-|x-x-x-x-x-------|
t |----------------|----------------|----------------|------------o---|
T |----------------|----------------|----------------|-------------o--|
f |----------------|----------------|----------------|--------------o-|
F |----------------|----------------|----------------|---------------o|
S |----o-------o---|----o-------o---|----o-------o---|----o-----do----|
B |oo-o--oo-oo-----|oo-o--oo-oo-----|oo-o--oo-oo-----|oo-o--oo-o------|

Chorus
C |x-------------x-|--------------x-|--------------x-|--------------x-|
R |--x-x-xxx-x-x---|x-x-x-xxx-x-x---|x-x-x-xxx-x-x---|x-x-x-xxxxx-x---|
S |----o-------o---|----o-------o---|----o-------o---|----o-------o---|
B |o-------o-o---o-|--o-----o-o---o-|--o-----o-o---o-|--o-----o-o---o-|

C |--------------x-|--------------x-|----------------|
R |x-x-x-xxx-x-x---|x-x-x-xxx-x-x---|x-x-x-x-x-x-----|
S |----o-------o---|----o-------o---|----o---o---oooo|
B |--o-----o-o---o-|--o-----o-o---o-|--o---oo--o-----|

Fill
C |x---------------|----------------|----------------|--------x-x-----|
H |----x---x---x---|x---x---x---x---|x---x---x---x---|x---x-----------|
S |----o-------o---|----o-------o---|----o-------o---|----o---o-o-ooo-|
B |o-oo--oo--oo--oo|--oo--oo--oo-ooo|--oo--oo--oo--oo|--oo--oo--------|

Repeat Verse 1 (for Verse 2)

Repeat Chorus but change the last measure to:
C |----------------|
R |x-x-x-x-x-x-----|
f |--------------oo|
S |----o---o---oo--|
B |--o---oo--o-----|

Interlude
C |------------|------------|
S |f-----------|------------|
B |------------|------------|
1ea2ea3ea4ea

C |x--x--x--x--|x--x--x--x--|x--x--x--x--|x--x--------|
H |------------|------------|------------|------------|
T |------------|------------|------------|--------f---| Play
F |------------|------------|------------|----------f-| x2
S |------o-o-o-|------o-o-o-|------o-o-o-|------f-----|
B |o-o-o-------|o-o-o-------|o-o-o-------|o-o-o-------|

Fill
C |x---------------|----------------|----------------|----------------|
H |----------------|----------------|----------------|----------o-----|
Hf|--x-x-x-x-x-x-x-|x-x-x-x-x-x-x-x-|x-x-x-x-x-x-x-x-|x-x-x-x-x--x----|
S |----f-------f---|----f-------f---|----f-------f---|----f-------ooo-|
B |o---------------|o---------------|o---------------|o---------o-----|

Verse 3
C |x---------------|----------------|----------------|--------------x-|
H |--x-x-x-x-x-x-x-|x-x-x-x-x-x-x-x-|x-x-x-x-x-x-x-x-|x-x-x-x-x-x-x---|
S |----o-------o---|----o-------o---|----o-------o---|----o-------o-o-|
B |o-oo-oo-oo-o--oo|o-oo-oo-oo-o--o-|o-oo-oo-oo-o--oo|o-oo-oo-oo-t----|

C |----------------|----------------|----------------|----------------|
H |x-x-x-x-x-x-x-x-|x-x-x-x-x-x-x-x-|x-x-x-x-x-x-x-x-|x-x-x-----------|
S |----o-------o---|----o-------o---|----o-------o---|----o-f---------|
B |o-oo-oo-oo-o--oo|o-oo-oo-oo-o--o-|o-oo-oo-oo-o--oo|o-oo-o----------|

Repeat Chorus but change the last measure to:
C |----------------|
R |x-x-x-x-x-x-----|
S |----o---o-o-oooo|
B |--o---oo--------|

Outro
C |X-x-X-x-x-x-X-x-|x-x-X-x-x-x-X-x-|x-x-X-x-x-x-X-x-|x---X-----X-----|
H |----------------|----------------|----------------|--x---x-x-------|
S |----o-------o---|----o-------o---|----o-------o---|----o-----o-oooo|
B |oo-o--oo-oo-----|oo-o--oo-oo-----|oo-o--oo-oo-----|oo-o--oo-o------|

C |X-x-X-x-x-x-X-x-|x-x-X-x-x-x-X-x-|x-x-X-x-x-x-X-x-|X---X-X---X-----|
H |----------------|----------------|----------------|----------------|
S |----o-------o---|----o-------o---|----o-------o---|o---o-o---o-----|
B |oo-o--oo-oo-----|oo-o--oo-oo-----|oo-o--oo-oo----t|-o-d---o-d------|



[You must be registered and logged in to see this image.]


Ravensclaw
Administrator
The Pioneer All Things Disturbed Joke!
View user profile

2 Re: The Sickness Drum Tabs on Fri 06 Mar 2009, 15:56

Ravensclaw

avatar
Administrator
The Game

There is a sound of a ride cymbal in the intro and verses - this is not
played by the drummer hence I have not tabbed it.

Notes: an 'o' on the hi-hat means hit 'open' or 'loose'
a 'c' on the hi-hat means 'close' (but no 'hit')

Verse 1 (begin after 4 measures)
C |----------------|----------------|----------------|----------------|
Hf|x---x---x---x---|x---x---x---x---|x---x---x---x---|x---x---x---x---| Play
S |----------------|----------------|----------------|----------------| x4
B |o---o---o---o---|o---o---o---o---|o---o---o---o---|o---o---o---o---|

Chorus 1 (no vocals)
C |x---------------|----------------|x---------------|----------------|
H |----o---o---o---|o---o---o---o---|----o---o---o---|o---o---o---o---|
S |----o-------o---|----o-------o---|----o-------o---|----o-------o---|
B |o-----o---o-----|--o-----o-o-----|o-----o---o-----|--o-----o-o-----|

C |x---------------|----------------|x---------------|----------------|
H |----o---o---o---|o---o---o---o---|----o---o---o---|o---o---o-o-----|
S |----o-------o---|----o-------o---|----o-------o---|----o-------oooo|
B |o-----o---o-----|--o-----o-o-----|o-----o---o-----|--o-----o-o-----|

Verse 2
C |x---------------|----------------|----------------|----------------|
H |----x---x---x---|x---x---x---x--o|x---x---x---x---|x---x---x---x--o|
S |----o-------o---|----o-------o--o|----o-------o---|----o-------o--o|
B |o-------o-------|o-------o-------|o-------o-------|o-------o-------|

C |----------------|----------------|----------------|----------------|
H |x---x---x---x---|x---x---x---x--o|x---x---x---x---|x---x---x-x-----|
S |----o-------o---|----o-------o--o|----o-------o---|----o-------oooo|
B |o-------o-------|o-------o-------|o-------o-------|o-------o-o-----|

Chorus 2 - Part 1
C |x---------------|----------------|x---------------|----------------|
H |----o---o---o---|o---o---o---o---|----o---o---o---|o---o---o---o---|
S |----o-------o---|----o-------o---|----o-------o---|----o-------o---|
B |o-----o---o-----|--o-----o-o-----|o-----o---o-----|--o-----o-o-----|

C |x---------------|----------------|x---------------|----------------|
H |----o---o---o---|o---o---o---o---|----o---o---o---|o---o-----------|
S |----o-------o---|----o-------o---|----o-------o---|----o---o-o-oooo|
B |o-----o---o-----|--o-----o-o-----|o-----o---o-----|--o-------------|

Chorus 2 - Part 2
C |x---------------|----------------|----------------|----------------|
H |----x---x---x---|x---x---x---x---|x---x---x---x---|x---x---x---x---|
S |----o-------o---|----o-------o---|----o-------o---|----o----o--o---|
B |ooo---o---o--oo-|ooo---o---o--oo-|ooo---o---o--oo-|ooo---o---o---o-|

C |----------------|----------------|----------------|----------------|
H |x---x---x---x---|x---x---x---x---|x---x---x---x---|x---x---x---x---|
S |----o-------o---|----o-------o---|----o-------o---|----o----o--o---|
B |ooo---o---o--oo-|ooo---o---o--oo-|ooo---o---o--oo-|ooo---o---o---o-|

Fill
C |x-----------x---|----------------|
R |----x---x-------|x---x---x-------|
S |----o-------o---|------o-----oooo|
B |o-----o---oo----|--o-----o-o-----|

Repeat: Verse 2, Chorus 2 - Part 1 & Part 2

Interlude
C |----------------|----------------|----------------|----------------|
Hf|x---x---x---x---|x---x---x---x---|x---x---x---x---|x---x---x---x---|
S |f---------------|----------------|----------------|----------------|
B |o---o---o---o---|o---o---o---o---|o---o---o---o---|o---o---o---o---|

C |----------------|----------------|----------------|----------------|
Hf|x---x---x---x---|x---x---x---x---|x---x---x---x---|x---x---x---x---|
S |----------------|----------------|----------------|----------------|
B |o---o---o---o---|o---o---o---o---|o---o---o---o---|o---o---o---o---|

C |x---x---x--x-x--|x---x-----------|x---x---x--x-x--|x---x-----------|
H |----------------|----------------|----------------|----------------|
T |----------------|--------oo---o--|----------------|--------oo---o--| Play
F |----------------|------oo--oo--oo|----------------|------oo--oo--oo| x3
S |----o-------o---|----o-------o---|----o-------o---|----o-------o---|
B |o---------o--o--|o---------------|o---------o--o--|o---------------|

C |----------------|----------------|----------------|----------------|
H |oc--x---x-o-oc--|x---x---x---x---|oc--x---x---oc--|x---x---x---x---| Play
S |----o-------o---|----o-------o---|----o-------o---|----o-------o---| x2
B |o------o--o--o--|o-------o-------|o------o--o--o--|o-------o-------|

C |----------------|
R |----------------|
S |f---------------|
B |----------------|

Chorus 3
C |x---------------|----------------|----------------|----------------|
H |----x---x---x---|x---x---x---x---|x---x---x---x---|x---x---x---x---|
S |----o-------o---|----o-------o---|----o-------o---|----o----o--o---|
B |ooo---o---o--oo-|ooo---o---o--oo-|ooo---o---o--oo-|ooo---o---o---o-|

C |----------------|----------------|----------------|----------------|
H |x---x---x---x---|x---x---x---x---|x---x---x---x---|x---x---x-------|
T |----------------|----------------|----------------|----------o-o---|
S |----o-------o---|----o-------o---|----o-------o---|----o-----------|
B |ooo---o---o--oo-|ooo---o---o--oo-|ooo---o---o--oo-|ooo---o---------|

Outro
C |x---x---x---x---|x---x---x---x---|x---x---x---x---|x---x---x---x---|
H |----------------|----------------|----------------|----------------|
S |--------o-------|--------o-------|--------o-------|--------o-------|
B |ooo---o---o---o-|ooo---o---o---o-|ooo---o---o---o-|ooo---o---o---o-|

C |x---x---x---x---|x---x---x---x---|x---x---x---x---|x---x---x-------|
H |----------------|----------------|----------------|----------------|
S |--------o-----o-|--------o-----o-|--------o-----o-|--------o---ooo-|
B |ooo---o---o-----|ooo---o---o-----|ooo---o---o-----|ooo---o---o-----|



[You must be registered and logged in to see this image.]


Ravensclaw
Administrator
The Pioneer All Things Disturbed Joke!
View user profile

3 Re: The Sickness Drum Tabs on Fri 06 Mar 2009, 15:59

Ravensclaw

avatar
Administrator
Stupify

/======2x======| 1 | 2 |
C |X---------------|----------------|----------------|------X---------|
H |----X---X---X---|X---X---X---X---|X---X---X---X---|X---X-----------|
S |----o-------o---|----o-------o---|----o-------o---|----o----oooooo-|
B |0--0--0---0-----|0--0--0---0-----|0--0--0---0-----|0--0--0---------|

VERSE 1 - accent upbeats on the hi-hat
/======7x======
H |x-x-x-x-x-x-x-x-|x-x-x-x-x-x-x-x-|
t |----------------|--------------o-|
T |----------------|---------------o|
S |----o-------o---|----o-------o---|
B |0--0--0---0-----|0--0--0---0-----|

/======6x======
C |X---------------|----------------|----------------|
H |--x-x-x-x-x-x-x-|x-x-x-x-x-x-x-x-|x-x-x-x-X-X-X-X-|
S |----o-------o---|----o-------o---|----o-------o---|
B |0--0--0---0-----|0--0--0---0-----|0--0--0---0-----|

CHORUS - Repeat Intro Part

BRIDGE
/======3x======
H |x-x-x-x-x-x-x-x-|x-x-x-x-x-x-x---|
t |----------------|--------------o-|
T |----------------|---------------o|
S |----o-------o---|----o-------o---|
B |0--0--0---0-----|0--0--0---0-----|

VERSE 2
/======7x======
H |x-x-x-x-x-x-x-x-|x-x-x-x-x-x-x-x-|
t |----------------|--------------o-|
T |----------------|---------------o|
S |----o-------o---|----o-------o---|
B |0--0--0---0-----|0--0--0---0-----|

/======3x====== /=====3x=======
C |X---------------|----------------|----------------|----------------|
H |--x-x-x-x-x-x-x-|x-x-x-x-x-x-x-x-|x-x-x-x-x-x-X---|x-x-x-x-x-x-X-X-|
S |----o-------o---|----o-------o---|----o-------o---|----o-------o---|
B |0--0--0---0-----|0--0--0---0-----|0--0--0---0-----|0--0--0---0-----|

CHORUS - Repeat Intro Part (Last Measure is Different)
H |x-x-x-x-x-x-X-X-|
S |----o---------o-|
B |0--0--0---0-0---|

WEIRD BRIDGE
/======3x======
H |x-x-x-x-x-x-x-xx|x-x-x-x-x-x-x-X-|
B |0--0--0---0-----|0--0--0---0-----|

/======3x======
H |x-x-x-x-x-x-x-xx|x-x-x-X---------|
B |0--0--0---0-----|0--0--0---------|

H |X---X---X---X---|X---X---X---X---|X---X---X---X---|X---X---X-------|
S |o---o---o---o---|o---o---o---o---|o---o---o---o---|o---o---o-------|
F |----------------|----------------|----------------|--------------o-|
B |----------------|--------------0-|----------------|---------T-T-T0-|

DONT DENY ME
C |X---------------|X---------------|
H |--X-X-X-X-X-X-X-|--X-X-X-X-X-X-X-|
S |----o-------o---|----o-------o-o-|
B |0--0--0--0-0--0-|0--0--0--0-0-0-0|

BRIDGE
/======3x======
C |x---------------|----------------|
H |----x---x---x---|x---x---x---x---|
S |----o-------o---|----o-------o---|
B |0--0--0-00000000|0--0--0-00000000|

CHORUS
/======2x======
C |X---------------|----------------|------X-----X---|
H |----X---X---X---|X---X---X---X---|X---------------|
S |----o-------o---|----o-------o---|----o----o----oo|
B |0--0--0-00000000|0--0--0-00000000|0-----0-----0---|

OUTRO
/======7x======
C |X---X---X---X---|X---X---X---X---|
S |----o-------o---|----o-------o-oo|
B |0--0--0---0-----|o--o--o---o-----|

/======7x======
C |X---X---X---X---|----------------|
S |----o-------o--o|oo--oo----------|
B |0--0--0---0---0-|----------------|



[You must be registered and logged in to see this image.]


Ravensclaw
Administrator
The Pioneer All Things Disturbed Joke!
View user profile

4 Re: The Sickness Drum Tabs on Fri 06 Mar 2009, 16:01

Ravensclaw

avatar
Administrator
Down With The Sickness

#=choked hi-hat
Hf=hi-hat foot
Ft1=Floor tom 1
St=Small tom
Mt=Medium tom
Rd=Ride cymbal
g=ghost note
0=2 32nd notes
X=accented hi-hat in verse, half open hi-hat when riding on it.
Ch=China cymbal
o=open hi-hat
d=drag

Intro:

1/4 ( Repeat 10 times)
St/----/o--o--o--o--o---/o--o--o--o------/
Mt/----/---------------o/----------------/
Ft1/----/-oo-o--oo-o--oo-/-oo-o--oo-------/
B/----/ooooo-ooooo-oooo/ooooo-oooo------/

( Repeat 1 time )
C/x---------------/----------------/----------------/
Rd/--x-x-x-x-x-x-x-/x-x-x-x-x-x-x-x-/x-x-x-x-x-x-----/
S/----o-------o--o/----o-------o--o/----o-------oooo/
B/oooo--ooooo-ooo-/oooo--ooooo-ooo-/oooo--ooooo-----/

( Repeat 1 time )
C/x---------------/----------------/----------------/
Rd/--x-x-x-x-x-x-x-/x-x-x-x-x-x-x-x-/x-x-x-x-x-------/
S/----o-------o--o/----o-------o--o/----o----ooooooo/
B/oooo--ooooo-ooo-/oooo--ooooo-ooo-/oooo--ooo-------/

Verse 1:

( Repeat 2 times )
C/x---------------/----------------/
H/----xxxxXxxxxxxx/XxxxxxxxXxxxxxxx/
S/----o-------o---/----o-------o---/
B/o-------o-------/o-------o-------/

( Repeat 1 time )
C/x---------------/----------------/----------------/
H/----xxxxXxxxxxxx/XxxxxxxxXxxxxxxx/XxxxxxxxX-X-----/
S/----o-------o---/----o-------o---/----o-------oooo/
B/o-------o-------/o-------o-------/o-------o-o-----/

PreChorus:

( Repeat 1 time )
C/x---------------/----------------/------------x---/
H/----X-X-X-X-X-X-/X-X-X-X-X-X-X-X-/X-X-X-X-X-X-----/
S/----o-------o---/----o-------o---/----o-------o-oo/
B/o-------o-------/o-------o-------/o-------o--g----/

( Repeat 1 time )
C/x---------------/----------------/--------x-------/
H/--X-X-X-X-X-X-X-/X-X-X-X-X-X-X-X-/X-X-X-X---X-----/
S/----o-------o---/----o-------o---/----o-------0ooo/
B/o-------o-------/o-------o-------/o-------o--o----/

Chorus:

( Repeat 2 times )
C/x---------------/----------------/
Rd/--x-x-x-x-x-x-x-/x-x-x-x-x-x-x-x-/
S/----o-------o---/----o-------o---/
B/o--o-oo---o--oo-/o--o-oo---o--oo-/

( Repeat 2 times )
C/x---------------/----------------/
Rd/--x-x-x-x-x-x-x-/x-x-x-x-x-x-x-x-/
S/----o-------o---/----o-------o---/
B/o--o-oo---o--oo-/o--o-oo---o--oo-/

PreVerse:

St/o--o--o--o--o---/o--o--o--o--oo--/
Mt/---------------o/--------------o-/
Ft1/-oo-o--oo-o--oo-/-oo-o--oo-o----o/
B/ooooo-ooooo-oooo/ooooo-ooooo-----/

Repeat Verse 1:

PreChorus 2:

( Repeat 1 time )
C/x---------------/----------------/------------x---/
Ch/----------------/----------------/----x-x---------/
H/--X-X-X-X-X-X-X-/X-X-X-X-X-X-X-X-/X-X-----X-X-----/
S/----o-------o---/----o-------o---/----o-o--o--o-oo/
B/o-------o-------/o-------o-------/o--d---o---o----/

( Repeat 1 time )
C/x---------------/----------------/--------x-------/
H/--X-X-X-X-X-X-X-/X-X-X-X-X-X-X-X-/X-X-X-X---X-----/
S/----o-------o---/----o-------o---/----o-------0ooo/
B/o-------o-------/o-------o-------/o-------o--g----/

Repeat Chorus:

Bridge:

( Repeat 6 times )
C/----------------/------x---x---x-/
Ch/----------------/------------x---/
H/o-xx--xxxxxx--00/o-X-----X-------/
S/----oo------oo--/----oo------o---/
B/o-o-------------/o-o---o---o---o-/

( Repeat this 3 times )
C/x---------------/------------/x-----------/x-----------/
H/----X---X---X---/X---X---X---/----X---X---/----X---X---/
S/----o-------o---/----o-----o-/----o-----o-/----o-----o-/
B/o-----o---o---o-/o-----o-----/o-----o-----/o-----o-----/
( these 3 measures are 3/4 time )


( Repeat this 2 times )
C/x---------------/------------/
H/----X---X---X---/X---X---X---/
S/----o-------o---/----o---o---/
B/o-----o---o---o-/o-----o-----/

H/#---------------/----------------/xxxo--xxxo--xxxo/xxxo--xxxo------/
S/o---------------/----------------/----------------/----------------/
Hf/----------------/----------------/----x-----x-----/x---x-----x-----/

Outro:

( Repeat 1 time )
C/x---------------/----------------/----------------/
Rd/--x-x-x-x-x-x-x-/x-x-x-x-x-x-x-x-/x-x-x-x-x-x-----/
S/----o-------o--o/----o-------o--o/----o-------oooo/
B/oooo--ooooo-ooo-/oooo--ooooo-ooo-/oooo--ooooo-----/

( Repeat 1 time )
C/x---------------/----------------/----------------/
Ch/----x---x---x---/x---x---x---x---/x---x---x-------/
H/----------------/----------------/----------#-----/
S/----o-------o--o/----o-------o--o/----o-----o-----/
B/oooo--ooooo-ooo-/oooo--ooooo-ooo-/oooo--ooooo-----/



[You must be registered and logged in to see this image.]


Ravensclaw
Administrator
The Pioneer All Things Disturbed Joke!
View user profile

5 Re: The Sickness Drum Tabs on Fri 06 Mar 2009, 16:02

Ravensclaw

avatar
Administrator
Violence Fetish

f = flam
d = double
c = chinese cymbal

INTRO

r x-x-x-x-X-x-x-x-�x-x-X-x-X-x-X-x-�X-x-X-x-X-x-X-x-�x-x-X-x-X-x-X-x-�
s ----o-------o---�----o-------o---�----o-------o---�----o-------o---�
b oo-o--oo-o-o--o-�oo-o--oo-o-o--o-�oo-o--oo-o-o--o-�oo-o--oo-o-o--o-�

r X-x-X-x-X-x-X-x-�X-x-X-x-X-x-X-x-�
s ----o-------o---�----o-------o---�
b oo-o--oo-o-o--o-�oo-o--oo-o-o--o-�

VERSE

c x---------------�----------------�----------------�----------------�
r --x-x-x-X-x-X-x-�x-x-X-x-X-x-X-x-�X-x-X-x-X-x-X-x-�X-x-X-x-X-x-x-x-�
s ----o-------o---�----o-------o---�----o-------o---�----o-------o---�
b oo-o--oo-o-o--o-�oo-o--oo-o-o--o-�oo-o--oo-o-o--o-�oo-o--oo-o-o--o-�

c x-x-x-x-x-x-x-x-�x-x-x-x-x-x-x-x-�x-x-x-x-x-x-x-x-�x-x-x-x-x-x-x---�
s ---o--------o---�---o--------o-o-�---o--------o---�---o--------o-oo�
b o-----o--o------�o-----o--o-o-o--�o-----o--o------�o-----o--o-o-o--�

h x-x-x-x-x-x-x-x-�x-x-x-x-x-x-x-x-�x-x-x-x-x-x-x-x-�x-x-x-x-x-x-xxX-�
s ---o--------o---�---o--------o---�---o--------o---�---o--------o---�
b oo---oo--o-o--o-�oo---oo--o-o--o-�oo---oo--o-o--o-�oo---oo--o-o----�

h x-x-x-x-x-x-x-x-�x-x-x-x-x-x-xxxx�x-x-x-x-x-x-x-x-�x-x-x-x-x-x-X-X-�
s ---o--------o---�---o--------o---�---o--------o---�---o--------o---�
b oo---oo--o-o--o-�oo---oo--o-o--o-�oo---oo--o-o--o-�oo---oo--o-o--o-�

PRE-CHORUS 1

t1 oo--------------�oo----oo--------�oo----oo--------�oo----oo--------�
t2 ------oo--------�---------o------�---------o------�---------o------�
s ----f-------o---�----f-------o---�----f-------o---�----f-------o---�
f ---------o--o---�------------o---�----------o-o---�----------o-o-o-�
b oo-o--oo---o--o-�oo-o--oo---o--o-�oo-o--oo---o--o-�oo-o--oo---o--o-�
hf x-x-x-x-x-x-x-x-�x-x-x-x-x-x-x-x-�x-x-x-x-x-x-x-x-�x-x-x-x-x-x-x-x-�

CHORUS 1

c x-x-x-x-x-x-x-x-�x-x-x-x-x-x-c-c-�x-x-x-x-x-x-x-x-�x-x-x-x-x-x-c---�
s ---o--------o---�---o--------o-o-�---o--------o---�---o--------o-oo�
b o-----o--o------�o-----o--o-o-o--�o-----o--o------�o-----o--o-o-o--�

c x-x-x-x-x-x-x-x-�x-x-x-x-x-x-c-c-�x-x-x-x-x-x-x-x-�x-x-x-x-x-x-c---�
s ---o--------o---�---o--------o-o-�---o--------o---�---o--------o-oo�
b o-----o--o------�o-----o--o-o-o--�o-----o--o------�o-----o--o-o-o--�

PART 1

h x-x-x-x-x-x-x-x-�x-x-x-x-x-x-xxX-�
s ---o--------o---�---o--------o---�
b oo---oo--o-o--o-�oo---oo--o-o----�

VERSE 2

h x-x-x-x-x-x-x-x-�x-x-x-x-x-x-x-x-�x-x-x-x-x-x-x-x-�x-x-x-x-x-x-xxX-�
s ---o--------o---�---o--------o---�---o--------o---�---o--------o---�
b oo---oo--o-o--o-�oo---oo--o-o--o-�oo---oo--o-o--o-�oo---oo--o-o----�

gradually open hihats on the last measure

c ----------------�----------------�----------------�----------------�
h x-x-x-x-x-x-x-x-�x-x-x-x-x-x-xxxx�x-x-x-x-x-x-x-x-�x-x-x-x-x-x-x-x-�
s ---o--------o---�---o--------o---�---o--------o---�---o--------o---�
b oo---oo--o-o--o-�oo---oo--o-o--o-�oo---oo--o-o--o-�oo---oo--o-o--o-�

REPEAT PRE-CHORUS

CHORUS 2

c x-x-x-x-x-x-x-x-�x-x-x-x-x-x-c-c-�x-x-x-x-x-x-x-x-�x-x-x-x-x-x-c---�
s ---o--------o---�---o--------o-o-�---o--------o---�---o--------o-oo�
b o-----o--o------�o-----o--o-o-o--�o-----o--o------�o-----o--o-o-o--�

c x-x-x-x-x-x-x-x-�x-x-x-x-x-x-c-c-�x-x-x-x-x-x-x-x-�x-x-x-x-x-x-c-c-�
s ---o--------o---�---o--------o-o-�---o--------o---�---o--------o-o-�
b o-----o--o------�o-----o--o-o-o--�o-----o--o------�o-----o--o-o-o--�

INTERLUDE

�-repeat 4x-�
t1 o-o---------�
f o-o---------�
b o-o---------�

c x-x-x-x-x-x-�x-x-x-x-x-x-�x-x-x-x-x-x-�x-x-x-x-x-x-�
s o---o---o---�o---o---o---�o---o---o---�o---o---o---�
b --o---o--o-o�--o---o--o-d�--o---o--o-o�--o---o--o-d�

c x-x-x-x-x-x-�x-x-x-x-x-x-�x-x-x-x-x-x-�x-x-x-x-x-c-�
s o---o---o---�o---o---o---�o---o---o---�o---o---o-o-�
b --o---o--o-o�--o---o--o-d�--o---o--o-o�--o---oo----�

PRE-CHORUS 3

t1 oo--------------�oo----oo--------�oo--------------�oo----oo--------�
t2 ------oo--------�---------o------�------oo--------�---------o------�
s ----f-------o---�----f-------o---�----f-------o---�----f-------f---�
f ---------o--o---�------------o---�---------o--o---�----------o-----�
b oo-o--oo---o--o-�oo-o--oo---o--o-�oo-o--oo---o--o-�oo-o--oo---o----�
hf x-x-x-x-x-x-x-x-�x-x-x-x-x-x-x-x-�x-x-x-x-x-x-x-x-�x-x-x-x-x-x-x---�

CHORUS 3

c x-x-x-x-x-x-x-x-�x-x-x-x-x-x-x-xx�x-x-x-x-x-x-x-x-�x-x-x-x-x-x-x-xx�
s ---o--------o---�---o--------o---�---o--------o---�---o--------o---�
b o-----o--o----o-�o-----o--o-o-ooo�o-----o--o----o-�o-----o--o-o-ooo�

c x---x---x---x---�x---x---x---x---�x---x---x---x---�x---x---x---x-x-�
s ---o--------o---�---o--------o---�---o--------o---�---o--------o-o-�
b o-----o--o----o-�o-----o--o-o-ooo�o-----o--o----o-�o-----o--o-o-o--�



[You must be registered and logged in to see this image.]


Ravensclaw
Administrator
The Pioneer All Things Disturbed Joke!
View user profile

6 Re: The Sickness Drum Tabs on Fri 06 Mar 2009, 16:04

Ravensclaw

avatar
Administrator
Fear

d = double
# = choke
f = flam

INTRO - first 8 measures are played on electronic percussion

h x-x-x-x-x-x-x-x-�x-x-x-x-x-x-x-x-�x-x-x-x-x-x-x-x-�x-x-x-x-x-x-x-X-�
s ----o-------o--o�----o-------o--o�----o-------o--o�----o----o--o--o�
b o-o----o--o--o--�o-o---oo--o--o--�o-o----o--o--o--�o-o---oo--oo-o--�

h x-x-x-x-x-x-x-XX�x-x-x-x-x-x-x-XX�x-x-x-x-x-x-x-XX�x-x-x-x-x-x-x-X-�
s ----o----o--o---�----o----o--o---�----o----o--o---�----o----o--o---�
b o-o----o---o-o--�o-o---oo---o-o--�o-o----o--oo-o--�o-o---oo---o-o--�

c x---------------�----------------�----------------�----------------�
h --x-x-x-x-x-x-x-�x-x-x-x-x-x-x-x-�x-x-x-x-x-x-x-x-�x-x-x-x-x-x-x---�
s ----o-------o--o�----o-------o--o�----o-------o--o�----o-------o-oo�
b o-o----o--o-----�o-o----o--o-----�o-o----o--o-----�o-o----o--o--o--�

c x---------------�----------------�----------------�------------x---�
h --x-x-x-x-x-x-x-�x-x-x-x-x-x-x-x-�x-x-x-x-x-x-x-x-�x-x-x-x-x-x-----�
s ----o-------o--o�----o-------o--o�----o-------o--o�----o-------o-oo�
b o-o----o--o-----�o-o----o--o-----�o-o----o--o-----�o-o----o--o--o--�

VERSE

c x---------------�----------------�----------------�----------------�
h --x-x-x-x-x-x-x-�x-x-x-x-x-x-x-x-�x-x-x-x-x-x-x-x-�x-x-x-x-x-#-----�
s ----o--o----o--o�----o--o----o--o�----o--o----o--o�----o--o--o-oooo�
b o-o--o--o-o--o--�o-o--o--o-o--o--�o-o--o--o-o--o--�o-o--o--o-------�

h x-x-x-x-x-x-x-x-�x-x-x-x-x-x-x-x-�x-x-x-x-x-x-x-x-�x-x-x-X-X-X-----�
s ----o--o----o--o�----o--o----o--o�----o--o----o--o�----o--o--odoooo�
b o-o--o--o-o--o--�o-o--o--o-o--o--�o-o--o--o-o--o--�o-o--o--o-------�

CHORUS 1

c x---------------�----------------�x---------------�----------------�
h --x-x-x-x-x-x-x-�x-x-x-x-x-x-x-x-�--x-x-x-x-x-x-x-�x-x-x-x-x-x-x---�
s ----o-------o---�----o----o--o---�----o-------o---�----o-o--o--o-oo�
b o-o----o--o----o�--o----o---o-o--�o-o----o--o----o�--o----o---o----�

REPEAT VERSE

CHORUS 2

c x---------------�----------------�x---------------�----------------�
h --x-x-x-x-x-x-x-�x-x-x-x-x-x-x-x-�--x-x-x-x-x-x-x-�x-x-x-x-x-x-x-x-�
s ----o-------o---�----o----o--o---�----o-------o---�----o----o--o---�
b o-o----o--o----o�--o----o---o-o--�o-o----o--o----o�--o----o---o-o--�

c x---------------�----------------�x---------------�----------------�
h --x-x-x-x-x-x-x-�x-x-x-x-x-x-x-x-�--x-x-x-x-x-x-x-�x-x-x-x-x-x-x---�
s ----o-------o---�----o----o--o---�----o-------o---�----o-o--o--o-oo�
b o-o----o--o----o�--o----o---o-o--�o-o----o--o----o�--o----o---o----�

BRIDGE 1

c x---x---x---x---�x---x---x---x---�x---x---x---x---�x---x---x---x-x-�
s ----o-------o---�----o-------o---�----o-------o---�----o-------o-o-�
b o--o--o--o----o-�o--o--o--o----o-�o--o--o--o----o-�o--o--o--o-o-o--�

INTERLUDE

h --x---x---x---x-�--x---#---x---x-�--x---x---x---x-�--x---#---x---X-�
b oo----oo----oo--�oo----o---------�oo----oo----oo--�oo----o---------�

c x---------------�----------------�----------------�----------------�
h --X-X-X-X-X-X-X-�X-X-X-X-X-X-X---�X-X-X-X-X-X-X-X-�X-X-X-X-X-X-X---�
s ----o-------o---�----o-------o-oo�----o-------o---�----o-------o-oo�
b oo----oo-----o--�oo----o---o-----�oo----oo-----o--�oo----o---o--o--�

c ----------------�----------------�----------------�-----------x----�
h X-X-X-X-X-X-X-X-�X-X-X-X-X-X-X---�X-X-X-X-X-X-X-X-�X-X-X-----------�
t1 ----------------�----------------�----------------�------f---------�
t2 ----------------�----------------�----------------�--------o-------�
s ----o-------o---�----o-------o-oo�----o-------o---�----o-----------�
f ----------------�----------------�----------------�---------oo-----�
b oo----oo-----o--�oo----o---o-----�oo----oo-----o--�oo-d-o-o---o----�

CHORUS 3

c x---------------�----------------�x---------------�----------------�
h --x-x-x-x-x-x-x-�x-x-x-x-x-x-x-x-�--x-x-x-x-x-x-x-�x-x-x-x-x-x-x-x-�
s ----o-------o---�----o----o--o---�----o-------o---�----o----o--o---�
b o-o----o--o----o�--o----o---o-o--�o-o----o--o----o�--o----o---o-o--�

c x---------------�----------------�x---------------�----------------�
h --x-x-x-x-x-x-x-�x-x-x-x-x-x-x-x-�--x-x-x-x-x-x-x-�x-x-x-x-x---x---�
s ----o-------o---�----o----o--o---�----o-------o---�----o-o--oo-o-oo�
b o-o----o--o----o�--o----o---o-o--�o-o----o--o----o�--o----o---o-o--�

BRIDGE 2

c x---x---x---x---�x---x---x---x---�x---x---x---x---�x---x---x---x---�
s ----o-------o---�----o-------o---�----o-------o---�----o-------o---�
b o--o--o--o----o-�o--o--o--o----o-�o--o--o--o----o-�o--o--o--o-o--o-�

c x---x---x---x---�x---x---x---x---�x---x---x---x---�x---x---x---x-x-�
s ----o-------o---�----o-------o---�----o-------o---�----o-------o-o-�
b o--o--o--o----o-�o--o--o--o----o-�o--o--o--o----o-�o--o--o--o-o-o--�

OUTRO

c x-x-x-x-x-x-x-x-�x-x-x-x-x-x-x-x-�x-x-x-x-x-x-x-x-�x-x-x-x-x-x-x---�
s ----o-------o--o�----o-------o--o�----o-------o--o�----o-------o-oo�
b o-o----o--o-----�o-o----o--o-----�o-o----o--o-----�o-o----o--o--o--�

c x-x---x---x---x-�--x---x---x---x-�--x---x---x---x-�--x---x---x-----�
s ----o--o----o--o�----o--o----o--o�----o--o----o--o�----o--o--odoooo�
b o-o-----o-o--o--�o-o-----o-o--o--�o-o-----o-o--o--�o-o-----o-------�

c x---------------�
b o---------------�



[You must be registered and logged in to see this image.]


Ravensclaw
Administrator
The Pioneer All Things Disturbed Joke!
View user profile

7 Re: The Sickness Drum Tabs on Fri 06 Mar 2009, 16:05

Ravensclaw

avatar
Administrator
Numb

d = double
# = choke
t = triplet timing

INTRO

c x-----x---------�------x---------�------x---------�------x---------�
r --x-x---x-x-x-x-�x-x-x---x-x-x-x-�x-x-x---x-x-x-x-�x-x-x---x-x-x---�
t1 ----------------�----------------�----------------�--------------od�
s ----o-------o---�----o-------o---�----o-------o---�----o-------o---�
b o--o--o---o-----�o--o--o---o-----�o--o--o---o-----�o--o--o---o--o--�

c ------x---------�------x---------�------x---------�------x---------�
r --------x-x-x-x-�x-x-x---x-x-x-x-�x-x-x---x-x-x-x-�x-x-x---x-x-----�
t1 ----------------�----------------�----------------�-o----------od--�
t2 oo--------------�----------------�----------------�--------------oo�
s ----f-------o---�----o-------o---�----o-------o---�----o----o------�
f --o-------------�----------------�----------------�----------------�
b ---o--o---o-----�o--o--o---o--o--�o--o--o---o-----�o--o--o----o----�

VERSE 1

c x---------------�----------------�----------------�----------------�
h --x-x-x-x-x-x-x-�x-x-x-x-x-x-x-x-�x-x-x-x-x-x-x-x-�x-x-x-x-x-x-x---�
s ----o-------o---�----o-------o---�----o-------o---�----o-------o-oo�
b o--o--o---o-----�o--o--o---o-----�o--o--o---o-----�o--o--o---o-----�

c ----------------�----------------�----------------�------------x---�
h x-x-x-x-x-x-x-x-�x-x-x-x-x-x-x-x-�x-x-x-x-x-x-x-x-�#---------------�
s ----o-------o---�----o-------o---�----o-------o---�o-----------o-oo�
b o--o--o---o-----�o--o--o---o-----�o--o--o---o-----�o------------o--�

CHORUS 1

c x-x---x---x-x---�x-x---x---x-x---�x-x---x---x-x---�x-x---x---x-x-x-�
h ----x---x-------�----x---x-------�----x---x-------�----x---x-------�
s ----o-------o-oo�----o-------o-oo�----o-------o-oo�----o-------o---�
b o-o--oo--oo--o--�o-o--oo--oo--o--�o-o--oo--oo--o--�o-o--oo---o---o-�

c x-x-x-x-x-x-x-x-�x-x-x-x-x-x-x-x-�x-x-x-x-x-x-x-x-�
s ----o--o----o---�----o--o----o---�----o--o----o---�
b ooo--o--ooo-----�ooo--o--ooo-----�ooo--o--ooo-----�

c x-x-x-x-------------�
t1 ------------ttt-----�
t2 ---------------dtt--�
s ----o---tttt--------�
f ------------------tt�
b ooo----o------------�

VERSE 2

c x---------------�----------------�----------------�----------------�
h --x-x-x-x-x-x-x-�x-x-x-x-x-x-x-x-�xxx-x-x-x-x-x-x-�x-x-x-x-x-x-x---�
s ----o-------o---�----o-------o---�----o-------o---�----o-------o-oo�
b o--o--o---o-----�o--o--o---o-----�o--o--o---o-----�o--o--o---o-----�

gradually open hihats on the last measure

c ----------------�----------------�----------------�------------x---�
h x-x-x-x-x-x-x-x-�x-x-x-x-x-x-x-x-�x-x-x-x-x-x-x-x-�x-x-x-x-x-x-----�
s ----o-------o---�----o-------o---�----o-------o---�----o-------o-oo�
b o--o--o---o-----�o--o--o---o-----�o--o--o---o-----�o--o-o----o--o--�

CHORUS 2

c x-x---x---x-x---�x-x---x---x-x---�x-x---x---x-x---�x-x---x---x-x-x-�
h ----x---x-------�----x---x-------�----x---x-------�----x---x-------�
s ----o-------o-oo�----o-------o-oo�----o-------o-oo�----o-------o---�
b o-o--oo--oo--o--�o-o--oo--oo--o--�o-o--oo--oo--o--�o-o--oo---o---o-�

c x-x-x-x-x-x-x-x-�x-x-x-x-x-x-x-x-�x-x-x-x-x-x-x-x-�x-x-x-x-x-x-x-x-�
s ----o--o----o---�----o--o----o---�----o--o----o---�----o--o----o-oo�
b ooo--o--ooo-----�ooo--o--ooo-----�ooo--o--ooo-----�ooo--o--ooo--o--�

PART 1

c x---------------�----------------�x---------------�----------------�
h --x-x-x-x-x-x-x-�x-x-x-x-x-x-x-x-�--x-x-x-x-x-x-x-�x-x-x-x-x-x-x-x-�
s ----o-------o---�----o-------o---�----o-------o---�----o-------o---�
b o--o-oo---o--o--�o--o-oo---o--o--�o--o-oo---o--o--�o--o-oo---o--o--�

c x---------------�------------x-x-�x---------------�----------------�
r --xxx-xxxxxxxxdd�xxxxxxxxxxx-----�----------------�----------------�
h ----------------�----------------�--x-x-x-x-x-x-x-�x-x-x-x-x-x-x-x-�
s ----o-------o---�----o-------o-oo�----o-------o---�----o-------o---�
b o-------o-------�o-------o--d-o--�o--o-oo---o--o--�o--o-oo---o--o--�

BRIDGE

c ----------------�-------------x--�----------------�------------x---�
h x-x--x-x--x-----�x-x--x-x--x-----�x-x--x-x--x-----�x-x--x-x--x-----�
s o-o--o-o--o-----�o-o--o-o--o--o--�o-o--o-o--o-----�o-o--o-o--o-o-oo�
b -o----o-oo------�-o----o-oo------�-o----o-oo------�-o----o-oo---o--�

CHORUS 3

c x-x---x---x-x---�x-x---x---x-x---�x-x---x---x-x---�x-----------x---�
h ----x---x-------�----x---x-------�----x---x-------�---x--x--x------�
s ----o-------o-oo�----o-------o-oo�----o-------o-oo�---o-----o--o-oo�
b o-o--oo--oo--o--�o-o--oo--oo--o--�o-o--oo--oo--o--�o-----o----o-o--�

c x-x---x---x-x---�x-x---x---x-x---�x-x---x---x-x---�x---------------�
h ----x---x-------�----x---x-------�----x---x-------�---x--x--x--x-x-�
s ----o-------o-oo�----o-------o-oo�----o-------o-oo�---o-----o----o-�
b o-o--oo--oo--o--�o-o--oo--oo--o--�o-o--oo--oo--o--�o-----o-----o---�

h x--x--x--x--x-x-�x--x--x--x--x-x-�x--x--x--x-xxx--�
s ---o-----o----o-�---o-----o----o-�---o-----o--oodd�
b o-----o-----o---�o-----o-----o---�o-----o----o----�

OUTRO

h #-x#--#--x--x-x-�x--x--#--x--x-x-�#-xx-x#--x--x-x-�#--#--#--#--#-#-�
s ---o-----o----o-�---o-----o----o-�---o-----o----o-�---o-----o----o-�
b o-----o-----o---�o-----o-----o---�o-----o-----o---�o-----o-----o---�

c #---------------�
s o---------------�
b o---------------�



[You must be registered and logged in to see this image.]


Ravensclaw
Administrator
The Pioneer All Things Disturbed Joke!
View user profile

8 Re: The Sickness Drum Tabs on Fri 06 Mar 2009, 16:06

Ravensclaw

avatar
Administrator
Want

^ - choke cymble HF - high hat pedal
O - open high hats F – flam (on snare line)
s - sixteenth note (all the rest are eigth or quarter notes)

H - hi hats S - snare
Rd - ride cymble t - small Tom
C - crash cymble T - medium Tom
B - bass drum F - floor tom


(intro)* *
C|--------------|--------------|--------x-x---|
S|--------------|--------------|--------o-o-o-|
T|--------------|-oooooooooooo-|-oooooo-------|
F|--------------|-oooooooooooo-|-oooooo-------|
B|--------------|-oooooooooooo-|-ooooooo------|
<-----1x------>


C|-x------------|--------------|--------x---------|
H|----x--x--x---|-x--x--x--x---|-x--x--------x----|
S|----o-----o---|----o-----o---|----o--------o----|
B|-o-----o------|-o-----o------|-o----sso--ss-ss--|
<------2x------>

C|-x--------x---|----------x---|-x-x-x-x-x-x--|
H|----x--x------|-x--x--x------|--------------| x2
S|----o-----o---|----o-----o---|----o-o---o-o-|
B|-o-----o-o----|-o-----o-o----|-o-o-o-o-o-o--|
<------2x------>

(verse)*
C|-x-x-x-x-x------|-x------------|--------------|--------------|
H|----------------|---x--x--x----|----x--x--x---|-x--x--x--O---|
S|----o-o---ooooo-|---o-----o----|----o-----o---|----o-----o---|
B|-o-o-o-o-o------|-o-----o------|-o-----o------|-o-----o------|
<------1x------>

C|-x------------|--------------|--------------|-x--x---------|
H|-HF-x--x--x---|-x--x--x--x---|-x--x--x--O---|--------------|
S|----o-----o---|----o-----o---|----o-----o---|----o--oo-----|
T|--------------|--------------|--------------|---------oo---|
F|--------------|--------------|--------------|-----------oo-|
B|-o-----o------|-o-----o------|-o-----o------|-o-o--o-------|

(bridge)*
C|-x------------|--------------|-x----^-----^-|----^-----x---|
Rd|----x--x--x---|-x--x---------|--------------|--------------|
S|----o-----o-o-|----o-ooooooo-|----o-----o---|--o-------o---|
B|-o-------o----|-o-o----------|-o-o--o--o--o-|-o--o----o----|


C|-x------------|--------------|-x----^-----^-|----^-----x---|
Rd|----x--x--x---|-x--x---------|--------------|--------------|
S|----o-----o-o-|----o--F------|----o-----o---|--o-------o---|
t|--------------|---------F----|--------------|--------------|
T|--------------|-----------F--|--------------|--------------|
B|-o-------o----|-o-o--o-------|-o-o--o--o--o-|-o--o----o----|

C|-x------------|-x--------x---|--------------|---------------------|
Rd|----x--x--x---|----x--x------|--------------|---------------------|
S|----o-----o-o-|----o-----o---|-o-----o------|-ssss--ssss---ss-----|
t|--------------|--------------|---F-----F----|----------------o----|
T|--------------|--------------|-----F-----F--|-----------------ss--|
F|--------------|--------------|--------------|-----ss----ss------o-|
B|-o-------o----|-o-------o----|-oooooooooooo-|---------------------|



(chorus)**
C|-x--------x---|----------x---|-x-x-x-x-x-x--|
H|----x--x------|-x--x--x------|--------------| x2
S|----o-----o---|----o-----o---|----o-o---o-o-|
B|-o-----o-o----|-o-----o-o----|-o-o-o-o-o-o--|
<------1x------>

C|-x-x-x-x-x------|-x------------|--------------|--------x-x---|
H|----------------|---x--x--x----|-x--x--x--x---|-x--x--x------|
S|----o-o---ooooo-|---o-----o----|----o-----o---|----o---o-o-o-|
B|-o-o-o-o-o------|-o-----o------|-o-----o------|-o-----o------|
<------1x------>
Verse**

Bridge**

(chorus)**
C|-x--------x---|----------x---|-x-x-x-x-x-x--|
H|----x--x------|-x--x--x------|--------------| x2
S|----o-----o---|----o-----o---|----o-o---o-o-|
B|-o-----o-o----|-o-----o-o----|-o-o-o-o-o-o--|
<------1x------>

(Chorus 2)*
C|-x--------x---|----------x---|-x-x-x-x-x-x--|
H|----x--x------|-x--x--x------|--------------| x2
S|----o-----o---|----o-----o---|----o-o---o-o-|
B|-o-o-o-o-o----|-o-o-o-o-o----|-o-o-o-o-o-o--|
<------1x------>

C|-x-x-x-x-x------|
S|----o-o---ooooo-|
B|-o-o-o-o-o------|

(guitar solo)
C|-x-x----------|
S|----o-o-------|
t|--------F-----|
T|----------F---|
F|------------F-|
B|-ooo---o-o-o--|
<-----2x------->


C|-x------------|----------x-x--|-x------------|-----x-----------|
Rd|----x--x--x---|-x--x----------|----x--x--x---|-x---------------|
S|----o-----o---|----o----------|----o-----o---|-----o----oooooo-|
t|--------------|---------------|--------------|-----------------|
T|--------------|---------------|--------------|-----------------|
F|--------------|---------------|--------------|-----------------|
B|-o-o-o-o-o-o--|-o-o-ssso-o-o--|-o-o-o-o-o-o--|-o-ss---ss-------|
<------------------------------2x------------------------------->

C|-x--x-----x---|----x-----x-x--|
Rd|-------x------|-x-------------|
S|----o-----o---|----o----------|
B|-o-o-o-o-o-o--|-o-o-ssso-o-o--|

C|-x--x--x--x---|--------------|-x------------|-----|-----|
H|--------------|--------------|----x--x--x---|HF---|-----|
S|----o-----o---|-oooooo-------|--------------|---o-|-----|
t|--------------|-------ooo----|--------------|-----|-----|
T|--------------|----------o---|--------------|-----|-----|
F|--------------|-----------oo-|--------------|-----|-----|
B|-o-o-o-o-o-o--|--------------|-o------------|-----|-----|

(intro)* *
C|--------------|--------------|--------x-x---|
S|--------------|--------------|--------o-o-o-|
T|--------------|-oooooooooooo-|-oooooo-------|
F|--------------|-oooooooooooo-|-oooooo-------|
B|--------------|-oooooooooooo-|-ooooooo------|
<-----1x------->

(chorus)**
C|-x--------x---|----------x---|-x-x-x-x-x-x--|
H|----x--x------|-x--x--x------|--------------| x2
S|----o-----o---|----o-----o---|----o-o---o-o-|
B|-o-----o-o----|-o-----o-o----|-o-o-o-o-o-o--|
<------1x------>

Chorus2**

(walk on home boy)……
C|-x------------|--------------|--------------|
S|-------o------|-------o------|-------o-o-oo-|
B|-oooooooooooo-|-oooooooooooo-|-oooooooooooo-|
<------6x------>

C|-x------------|-------x------|-x-----x------|
H|----x--x--x---|-x--x-----x---|----x-----x---|
S|-------o------|-------o-o-oo-|-------o-o-oo-|
B|-o----o-------|-o-o-ss-------|-o-o-oo-------|
<-------------4x--------------><-----2x------>

C|-x------------|-------x------|-x-----x------|
H|----x--x--x---|-x--x-----x---|----x-----x---|
S|-------o------|-------o-o-oo-|-------o-o-oo-| gradually fades out
B|-o----o-------|-o-o-ss-------|-o-o-ss-------|
<-------------2x-------------><----4x-------->



[You must be registered and logged in to see this image.]


Ravensclaw
Administrator
The Pioneer All Things Disturbed Joke!
View user profile

9 Re: The Sickness Drum Tabs on Fri 06 Mar 2009, 16:08

Ravensclaw

avatar
Administrator
Conflict

Drop D Tunning

Intro/Chorus
G|---------------|---------------|
D|---------------|---------------|
A|---------------|---------------|
D|2h3-2h3-2h3-3-2|3h4-3h4-3h4-4-3|

Pre-verse
G|-------------|
D|-------------|
A|3-3-3--2-2--1|
D|-------------|

Verse
G|-------|-------|-------|-------|
D|-------|-------|-------|-------|
A|-------|-------|-------|-------|
D|0000--4|0000--3|0000--2|0000--3|

Bridge 1
G|-----|-----|-----|
D|-----|-----|-----|
A|-----|-----|-----|
D|2h3-3|3h4-3|2h3-3|

Bridge 2
G|-------|------|
D|-------|------|
A|-------|------|
D|0/7-5-3|/7-5-3|

Outro
G|---|
D|---|
A|---|
D|0-1|

Last bar
G|-----|
D|-----|
A|-----|
D|00-11| fade



[You must be registered and logged in to see this image.]


Ravensclaw
Administrator
The Pioneer All Things Disturbed Joke!
View user profile

10 Re: The Sickness Drum Tabs on Fri 06 Mar 2009, 16:09

Ravensclaw

avatar
Administrator
shout 2000

Chorus 1
C |X-x-x-x-_x-x-X-x-|x-x-x-x-_x-x-X-x-|X-x-x-x-_x-x-X-x-|x-x-x-x-_x-x-X-x-|
S |----o---_----o---|----o---_----o---|----o---_----o---|----o---_----o---|
B |o-oo-oo-_oo-o----|o-oo-oo-_oo-o----|o-oo-oo-_oo-o----|o-oo-oo-_oo-o----|

C |X-x-x-x-_x-x-X-x-|x-x-x-x-_x-x-X-x-|X-x-x-x-_x-x-X-x-|x-x-x-x-_x-x-X-x-|
S |----o---_----o---|----o---_----o---|----o---_----o---|----o---_----o---|
B |o-oo-oo-_oo-o----|o-oo-oo-_oo-o--oo|o-oo-oo-_oo-o----|o-oo-oo-_oo-o----|

C |X-x-x-x-_x-x-X-x-|x-x-x-x-_x-x-X-x-|X-x-x-x-_x-x-X-x-|x-x-x-x-_x-x-X-x-|
S |----o---_----o---|----o---_----o---|----o---_----o---|----o---_----o---|
B |o-oo-oo-_oo-o----|o-oo-oo-_oo-o----|o-oo-oo-_oo-o----|o-oo-oo-_oo-o----|

C |X-x-x-x-_x-x-X-x-|x-x-x-x-_x-x-X-x-|X-x-x-x-_x-x-X-x-|x-x-x-x-_x-x-X-x-|
S |----o---_----o---|----o---_----o---|----o---_----o---|----o---_----o---|
B |o-oo-oo-_oo-o----|o-oo-oo-_oo-o--oo|o-oo-oo-_oo-o----|o-oo-oo-_oo-o----|

Verse 1
|--------------------------------play-3x--------------------------------|
C |X-------_--------|--------_--------|X-------_----X---|--------_----X---|
H |--------_--------|--------_--------|----x---_x-------|x---x---_x-------|
S |----f---_----f---|----f---_----f---|----o---_----o---|----o---_----o---|
T |------o-_--o-----|o-----o-_--o-----|--------_--------|--------_--------|
F |------o-_--o-----|o-----o-_--o-----|--------_--------|--------_--------|
B |o-----o-_--o-----|o-----o-_--o-----|oooo--oo_oo------|oooo--oo_oo------|

C |X-------_--------|--------_--------|X-------_----X---|--------_----X---|
H |--------_--------|--------_--------|----x---_x-------|x---x---_x-------|
S |----f---_----f---|----f---_----f---|----o---_----o---|----o---_----o-oo|
T |------o-_--o-----|o-----o-_--o-----|--------_--------|--------_--------|
F |------o-_--o-----|o-----o-_--o-----|--------_--------|--------_--------|
B |o-----o-_--o-----|o-----o-_--o-----|oooo--oo_oo------|oooo--oo_oo------|

Chorus 2
C |X-x-x-x-_x-x-X-x-|x-x-x-x-_x-x-X-x-|X-x-x-x-_x-x-X-x-|x-x-x-x-_x-x-X-x-|
S |----o---_----o---|----o---_----o---|----o---_----o---|----o---_----o---|
B |o-oo-oo-_oo-o----|o-oo-oo-_oo-o----|o-oo-oo-_oo-o----|o-oo-oo-_oo-o----|

C |X-x-x-x-_x-x-X-x-|x-x-x-x-_x-x-X-x-|X-x-x-x-_x-x-X-x-|x-x-x-x-_x-x-X-x-|
S |----o---_----o---|----o---_----o---|----o---_----o---|----o---_----o---|
B |o-oo-oo-_oo-o----|o-oo-oo-_oo-o--oo|o-oo-oo-_oo-o----|o-oo-oo-_oo-o----|

Verse 2
|--------------------------------play-2x--------------------------------|
C |X-------_--------|--------_--------|X-------_----X---|--------_----X---|
H |--------_--------|--------_--------|----x---_x-------|x---x---_x-------|
S |----f---_----f---|----f---_----f---|----o---_----o---|----o---_----o-oo|
T |------o-_--o-----|o-----o-_--o-----|--------_--------|--------_--------|
F |------o-_--o-----|o-----o-_--o-----|--------_--------|--------_--------|
B |o-----o-_--o-----|o-----o-_--o-----|oooo--oo_oo------|oooo--oo_oo------|

Chorus 3
C |X-x-x-x-_x-x-X-x-|x-x-x-x-_x-x-X-x-|X-x-x-x-_x-x-X-x-|x-x-x-x-_x-x-X-x-|
S |----o---_----o---|----o---_----o---|----o---_----o---|----o---_----o---|
B |o-oo-oo-_oo-o----|o-oo-oo-_oo-o----|o-oo-oo-_oo-o----|o-oo-oo-_oo-o----|

C |X-x-x-x-_x-x-X-x-|x-x-x-x-_x-x-X-x-|
S |----o---_----o---|----o---_----o---|
B |o-oo-oo-_oo-o--oo|o-oo-oo-_oo-o----|

Interlude
C |X-X---X-_X-X-X-X-|X-X---X-_X-X-X-X-|X-X---X-_X-X-X-X-|X-X---X-_X-X-X-X-|
S |--------_----o---|--------_----o---|--------_----o---|--------_----o---|
T |----oo--_--------|----oo--_--------|----oo--_--------|----oo--_--------|
B |o-o---o-_o-------|o-o---o-_o-------|o-o---o-_o-------|o-o---o-_o-------|

C |X-------_--------|--------_--------|X-------_--------|--------_--------|
Rd|--x-x-x-_x-x-x-x-|x-x-x-x-_x-x-x-x-|--x-x-x-_x-x-x-x-|x-x-x-x-_x-------|
S |----o---_----o---|----o---_----o---|----o---_----o---|----o---_-oooo-f-|
B |o-o--oo-_o-------|o-o--oo-_o-------|o-o--oo-_o-------|o-o--oo-_o----o--|

C |X-------_--------|--------_--------|--------_--------|--------_--------|
H |----x---_x---x---|x---x---_x---x---|x---x---_x---x---|x---x---_x---x---|
S |----o---_--------|----o---_----o---|----o---_----o---|----o---_----o---|
B |o------o_ooo-o---|--oo-o-o_-ooo-oo-|o------o_ooo-----|ooo--ooo_ooo-o---|

C |--------_--------|--------_--------|--------_--------|--------_----X---|
H |x---x---_x---x---|x---x---_x---x---|x---x---_x---x---|x---x---_x-------|
S |----o---_--------|----o---_----o---|----o---_----o---|----o---_----o---|
B |o------o_ooo-o---|--oo-o-o_-ooo-oo-|o------o_ooo-----|ooo--ooo_ooo-----|

Verse 3 (ride played on bell)
C |X-------_--------|--------_--------|X-------_----X---|--------_----X---|
Rd|--x-x-x-_x-x-x-xx|x-x-x-x-_x-x-x-x-|--------_--------|--------_--------|
H |--------_--------|--------_--------|----x---_x-------|x---x---_x-------|
S |----o---_----o---|----o---_----o---|----o---_----o---|----o---_----o---|
B |o-o---o-_o-o---o-|o-o---o-_o-o---o-|oooo--oo_oo------|oooo--oo_oo------|

C |X-------_--------|--------_--------|X-------_----X---|--------_X-X-----|
Rd|--x-x-x-_x-x-x-xx|x-x-x-x-_x-x-x-x-|--------_--------|--------_--------|
H |--------_--------|--------_--------|----x---_x-------|x---x---_--------|
S |----o---_----o---|----o---_----o---|----o---_----o---|----o---_o-o-oooo|
B |o-o---o-_o-o---o-|o-o---o-_o-o---o-|oooo--oo_oo------|oooo--oo_--------|

Chorus 4
C |X-x-x-x-_x-x-X-x-|x-x-x-x-_x-x-X-x-|X-x-x-x-_x-x-X-x-|x-x-x-x-_x-x-X-x-|
S |----o---_----o---|----o---_----o---|----o---_----o---|----o---_----o---|
B |o-oo-oo-_oo-o----|o-oo-oo-_oo-o----|o-oo-oo-_oo-o----|o-oo-oo-_oo-o----|

C |X-x-x-x-_x-x-X-x-|x-x-x-x-_x-x-X-x-|X-x-x-x-_x-x-X-x-|x-x-x-x-_x-x-----|
S |----o---_----o---|----o---_----o---|----o---_----o---|oo------_--------|
t |--------_--------|--------_--------|--------_--------|----oo--_--------|
T |--------_--------|--------_--------|--------_--------|--------_oo--oo--|
F |--------_--------|--------_--------|--------_--------|--------_------o-|
B |o-oo-oo-_oo-o----|o-oo-oo-_oo-o----|o-oo-oo-_oo-o----|--------_--------|

C |X-x-x-x-_x-x-X-x-|x-x-x-x-_x-x-X-x-|X-x-x-x-_x-x-X-x-|x-x-x-x-_x-x-X-x-|
S |----o---_----o---|----o---_----o---|----o---_----o---|----o---_----o---|
B |o-oo-oo-_oo-o----|o-oo-oo-_oo-o----|o-oo-oo-_oo-o----|o-oo-oo-_oo-o----|

C |X-x-x-x-_x-x-X-x-|x-x-x-x-_x-x-X-x-|X-x-x-x-_x-x-X-x-|x-x-x-x-_x-x---x-|
S |----o---_----o---|----o---_----o---|----o---_----o---|----o---_--------|
T |--------_--------|--------_--------|--------_--------|--------_----f---|
B |o-oo-oo-_oo-o----|o-oo-oo-_oo-o----|o-oo-oo-_oo-o----|o-oo-oo-_o-------|

Outro
|--------------------------------play-2x--------------------------------|
C |X---X---_X---X---|X---X---_X---X---|X---X---_X---X---|X---X---_X---X---|
S |----o---_----o---|----o---_----o---|----o---_----o---|----o---_----o---|
B |o-o---o-_-o------|o-o---o-_-o------|o-o---o-_-o------|o-o---o-_-o------|



[You must be registered and logged in to see this image.]


Ravensclaw
Administrator
The Pioneer All Things Disturbed Joke!
View user profile

11 Re: The Sickness Drum Tabs on Fri 06 Mar 2009, 16:10

Ravensclaw

avatar
Administrator
Droppin Plates

0=2 32nd notes
f=flam
Ch=China
Mt=Medium tom
Ft1=Floor tom 1
Ft2=Floor tom 2
o=open hi-hat
X=half open hi-hat
x=closed hi-hat
g=ghost note
#=choke hi-hat

Intro:

( Repeat 8 times )
Ch/--x---x---x---x-/
C/x---------------/
S/----f-------f---/
B/o--o00oo-o-o00oo/

Verse 1:

2/4
C/--------/x---------------/----------------/----------------/x-----x-----x---/
H/--------/--o-x-x-x-x-x-x-/x-o-x-x-x-x-x-x-/x-o-x-x-X-X-X-X-/--X-X---X-X-----/
S/--------/----o-------o---/----o-------o---/----o-------o---/----o----o--o-oo/
B/--------/oo-----o--o-----/oo-----o--o-----/oo-----o--o-----/o-oo-go---oo-o--/

C/x---------------/----------------/----------------/x-----x-----x---/
H/--o-x-x-x-x-x-x-/x-o-x-x-x-x-x-x-/x-o-x-x-X-X-X-X-/--X-X---X-X-----/
S/----o-------o---/----o-------o---/----o-------o---/----o----o--o-oo/
B/oo-----o--o-----/oo-----o--o-----/oo-----o--o-----/o-oo-go---oo-o--/

Chorus 1:

( Repeat 2 times )
Ch/----x-----------/----x-----------/----x-----------/
C/x---------------/----------------/----------------/
Rd/--x---x-x-x-x-x-/x-x---x-x-x-x-x-/x-x---x-x-------/
St/----------------/----------------/------------f---/
Mt/----------------/----------------/--------------oo/
S/----o-------o---/----o-------o---/----o----of-----/
B/o-o----o-oo-----/o-o----o-oo-----/o-o----o---o-o--/

Verse 2:

C/x---------------/----------------/----------------/x-----x-----x---/
H/--o-x-x-x-x-x-x-/x-o-x-x-x-x-x-x-/x-o-x-x-X-X-X-X-/--X-X---X-X-----/
S/----o-------o---/----o-------o---/----o-------o---/----o----o--o-oo/
B/oo-----o--o-----/oo-----o--o-----/oo-----o--o-----/o-oo-go---oo-o--/

Ch/----x-----------/----------------/----x-----------/----------------/
C/x---------------/x-----x---------/x---------------/x-----x---------/
Rd/--x-------------/--x-x---x-------/--x-------------/--x-x---x-------/
Mt/------oo-ooo--oo/---------ooo-ooo/------oo-ooo--oo/---------ooo-ooo/
S/----o-------f---/----o-------f---/----o-------f---/----o-------f---/
Ft/------oo-ooo--oo/---------ooo-ooo/------oo-ooo--oo/---------ooo-ooo/
B/o--o---------o--/o-----o---------/o--o---------o--/o----go---------/

Chorus 2:

( Repeat 8 times )
Ch/--x---x---x---x-/
C/x---------------/
S/----f-------f---/
B/o--o00oo-o-o00oo/

Bridge:

( Repeat 5 times )(Repeat 3 times )
C/x---------------/----------------/----------------/----------------/
H/----------------/----------------/xxo-xxo-xxo-xxo-/xxo-xxo-XXXXX---/
B/o---o---o---o---/o---o---o---o---/o---o---o---o---/o---o---o-------/

( Repeat 2 times )
C/x---------------/----------------/---------------/
H/--X-X-X-X-X-X-X-/X-X-X-X-X-X-X-X-/X-X-X-X-X-X-X--/
Mt/----------------/----------------/-------------o-/
S/----o-------o---/----o-------o---/----o-------o--/
Ft1/----------------/----------------/-------------oo/
Ft2/----------------/----------------/--------------o/
B/oo-o--oo-oo--o-o/oo-o--oo-oo--o-o/oo-o--oo-oo0---/
1e+a2e+a3e+a4na

C/x---------------/---------------/x---------------/----------------/
H/--X-X-X-X-X-X-X-/X-X-X-X-X-X-X--/--X-X-X-X-X-X-X-/X-X-X-X-X-------/
Mt/----------------/-------------o-/----------------/----------------/
S/----o-------o---/----o-------o--/----o-------o---/----o-----------/
Ft1/----------------/-------------oo/----------------/---------ooooooo/
Ft2/----------------/--------------o/----------------/---------ooooooo/
B/oo-o--oo-oo--o-o/oo-o--oo-oo0---/oo-o--oo-oo--o-o/oo-o--oo--------/
1e+a2e+a3e+a4na

Chorus 3:

( Repeat 2 times )
Ch/----x-----------/----x-----------/----x-----------/
C/x---------------/----------------/----------------/
Rd/--x---x-x-x-x-x-/x-x---x-x-x-x-x-/x-x---x-x-------/
St/----------------/----------------/------------f---/
Mt/----------------/----------------/--------------oo/
S/----o-------o---/----o-------o---/----o----of-----/
B/o-o----o-oo-----/o-o----o-oo-----/o-o----o---o-o--/

Outro:

C/x---------------/----------------/----------------/----------------/
H/----------------/----------------/x-x-x-x-x-x-x-x-/x-x-x-x-x-x-x-#-/
S/----------------/----------------/----o-------o---/----o-------o---/
B/o---------------/----------------/oo-----o--o-----/oo-----o--o---o-/

( Repeat 7 times )
Ch/--x---x---x---x-/--x---x---x-----/
C/x---------------/x---------------/
S/----f-------f---/----f-------f-fo/
B/o--o00oo-o-o00oo/o--o00oo-o-o00--/



[You must be registered and logged in to see this image.]


Ravensclaw
Administrator
The Pioneer All Things Disturbed Joke!
View user profile

12 Re: The Sickness Drum Tabs on Fri 06 Mar 2009, 16:13

Ravensclaw

avatar
Administrator
Meaning Of Life

Intro
C |---------------|----------------|----------------|----------------|
H |----X---X---X---|X---X---X---X---|X---X---X---X---|X---X---X---X---|
S |--------o-------|--------o-------|--------o-------|--------o-------|
B |-----o-----o-o-|----------------|o-o---o-----o-o-|----------------|

H |X---X---X---X---|X---X---X---X---|X---X---X---X---|X---X---X---X---|
S |--------o-------|--------o-------|--------o-------|--------o-------|
B |o-----o-----o-o-|----------------|o-o---o-----o-o-|----------------|

Verse
C |x---------------|----------------|----------------|----------------|
H |----X---x---X---|x---X---x---X---|x---X---x---X---|x---X---x---X---|
S |--------o-------|--------o-------|--------o-------|--------o-------|
B |o-----o-----o-o-|----------------|o-o---o-----o-o-|----------------|

H |x---X---x---X---|x---X---x---X---|x---X---x---X---|x---X---x---X---|
S |--------o-------|--------o-------|--------o-------|--------o-------|
B |o-----o-----o-o-|----------------|o-o---o-----o-o-|----------------|

C |x---------------|----------------|----------------|----------------|
H |----X---x---X---|x---X---x---X---|x---X---x---X---|x---X---x---X---|
S |--------o-------|--------o-------|--------o-------|--------o-------|
B |o-o-o-o-----o-o-|o-o-o-----------|o-o-o-o-----o-o-|o-o-o-----------|

H |x---X---x---X---|x---X---x---X---|x---X---x---X---|x---X---x---X---|
S |--------o-------|--------o-------|--------o-------|--------o-------|
B |o-o-o-o-----o-o-|o-o-o-----------|o-o-o-o-----o-o-|o-o-o-----------|

Bridge
C |x---------------|----------------|----------------|x---x--x--------|
T |----------------|------o-o-o-----|----------------|----------------|
S |----o-------f---|----o-------f---|----f-------f---|------------f-oo|
F |------oooooo----|------o-o-o-----|------oooooo----|----------------|
B |o-o-----o-------|o-o---o-o-o-----|o-o-----o-------|o---o--o---o----|

Chorus
C |x------x----x---|----------------|x---------------|----------------|
H |----------------|X---X---X---X---|----X---X---X---|X---X---X---X---|
S |-----o----o-----|----o-------o---|----o-------o---|----o-------o---|
B |o------o----o---|--o-----o-o-----|o-----o---o-----|--o-----o-o-----|

C |x------x----x---|----------------|x---------------|----------------|
H |----------------|X---X---X---X---|----X---X---X---|X---X---X---X---|
S |-----o----o-----|----o-------o---|----o-------o---|----o-------o-oo|
B |o------o----o---|--o-----o-o-----|o-----o---o-----|--o-----o-o-----|

C |x------x----x---|----------------|x---------------|----------------|
H |----------------|X---X---X---X---|----X---X---X---|X---X---X---X---|
S |-----o----o-----|----o-------o---|----o-------o---|----o-------o---|
B |o------o----o---|--o-----o-o-----|o-----o---o-----|--o-----o-o-----|

C |x------x----x---|----------------|x---------------|----------------|
H |----------------|X---X---X---X---|----X---X---X---|X---X---X---X---|
S |-----o----o-----|----o-------o---|----o-------o---|----o-------o---|
B |o------o----o---|--o-----o-o-----|o-----o---o-----|--o-----o-o-----|


H |x---x---x---x---|x---x---x---x---|x---x---x---x---|x-----------x---|
S |------o-------o-|------o-------o-|------o-------o-|----------------|
B |o-o-------o-o---|----o---o-o-----|--o-----o-o-o---|o-----------o---|

Verse
C |x---------------|----------------|----------------|----------------|
H |----X---x---X---|x---X---x---X---|x---X---x---X---|x---X---x---X---|
S |--------o-------|--------o-------|--------o-------|--------o-------|
B |o-----o-----o-o-|----------------|o-o---o-----o-o-|----------------|

H |x---X---x---X---|x---X---x---X---|x---X---x---X---|x---X---x---X---|
S |--------o-------|--------o-------|--------o-------|--------o-------|
B |o-----o-----o-o-|----------------|o-o---o-----o-o-|----------------|

C |x---------------|----------------|----------------|----------------|
H |----X---x---X---|x---X---x---X---|x---X---x---X---|x---X---x---X---|
S |--------o-------|--------o-------|--------o-------|--------o-------|
B |o-o-o-o-----o-o-|o-o-o-----------|o-o-o-o-----o-o-|o-o-o-----------|

H |x---X---x---X---|x---X---x---X---|x---X---x---X---|x---X---x---X---|
S |--------o-------|--------o-------|--------o-------|--------o-------|
B |o-o-o-o-----o-o-|o-o-o-----------|o-o-o-o-----o-o-|o-o-------------|

Bridge
C |x---------------|----------------|----------------|x---x--x--------|
T |----------------|------o-o-o-----|----------------|----------------|
S |----o-------f---|----o-------f---|----f-------f---|------------f-oo|
F |------oooooo----|------o-o-o-----|------oooooo----|----------------|
B |o-o-----o-------|o-o---o-o-o-----|o-o-----o-------|o---o--o---o----|

Chorus
C |x------x----x---|----------------|x---------------|----------------|
H |----------------|X---X---X---X---|----X---X---X---|X---X---X---X---|
S |-----o----o-----|----o-------o---|----o-------o---|----o-------o---|
B |o------o----o---|--o-----o-o-----|o-----o---o-----|--o-----o-o-----|

C |x------x----x---|----------------|x---------------|----------------|
H |----------------|X---X---X---X---|----X---X---X---|X---X---X---X---|
S |-----o----o-----|----o-------o---|----o-------o---|----o-------o-oo|
B |o------o----o---|--o-----o-o-----|o-----o---o-----|--o-----o-o-----|

C |x------x----x---|----------------|x---------------|----------------|
H |----------------|X---X---X---X---|----X---X---X---|X---X---X---X---|
S |-----o----o-----|----o-------o---|----o-------o---|----o-------o---|
B |o------o----o---|--o-----o-o-----|o-----o---o-----|--o-----o-o-----|

C |x------x----x---|----------------|x---------------|----------------|
H |----------------|X---X---X---X---|----X---X---X---|X---X---X---X---|
S |-----o----o-----|----o-------o---|----o-------o---|----o-------o---|
B |o------o----o---|--o-----o-o-----|o-----o---o-----|--o-----o-o-----|

Quiet
|-----play 3x----|
H |@---------------|----------------|
S |----------------|----------------|
B |o---------------|----------------|

Verse
C |x---------------|----------------|----------------|----------------|
H |----X---X---X---|X---X---X---X---|X---X---X---X---|X---X---X---X---|
S |--------o-------|--------o-------|--------o-------|--------o-------|
B |o---o-o---o-o-o-|--o-o-o---o-o---|o---o-o---o-o-o-|--o-o-o---o-o---|


H |X---X---X---X---|X---X---X---X---|X---X---X---X---|X---X-----------|
S |--------o-------|--------o-------|--------o-------|----o---f---f---|
B |o---o-o---o-o-o-|--o-o-o---o-o---|o---o-o---o-o-o-|--o---o---o-----|

C |x---------------|----------------|----------------|----------------|
H |----X---X---X---|X---X---X---X---|X---X---X---X---|X---X---X---X---|
S |--------o-------|--------o-------|--------o-------|--------o-------|
B |o---o-o---o-o-o-|--o-o-o---o-o---|o---o-o---o-o-o-|--o-o-o---o-----|

C |x---------------|----------------|----------------|--------x---x---|
H |----X---X---X---|X---X---X---X---|X---X---X---X---|X---X-----------|
S |--------o-------|--------o-------|--------o-------|--------o---o-oo|
B |o---o-o---o-o-o-|--o-o-o---o-o---|o---o-o---o-o-o-|--o-o-o---o-----|

Chorus
C |x------x----x---|----------------|x---------------|----------------|
H |----------------|X---X---X---X---|----X---X---X---|X---X---X---X---|
S |-----o----o-----|----o-------o---|----o-------o---|----o-------o---|
B |o------o----o---|--o-----o-o-----|o-----o---o-----|--o-----o-o-----|

C |x------x----x---|----------------|x---------------|----------------|
H |----------------|X---X---X---X---|----X---X---X---|X---X---X---X---|
S |---o-o--o-o-----|----o-------o---|----o-------o---|----o-------o---|
B |o------o----o---|--o-----o-o-----|o-----o---o-----|--o-----o-o-----|

C |x------x----x---|----------------|x---------------|----------------|
H |----------------|X---X---X---X---|----X---X---X---|X---X---X---X---|
S |---oooo-oooo----|----o-------o---|----o-------o---|----o-------o---|
B |o------o----o---|--o-----o-o-----|o-----o---o-----|--o-----o-o-----|

C |x------x----x---|----------------|x---------------|----------------|
H |----------------|X---X---X---X---|----X---X---X---|X---X---X-------|
S |----------------|----o-------o---|----o-------o---|----o-----------|
F |---oooo-oooo----|----------------|----------------|------------f---|
B |o------o----o---|--o-----o-o-----|o-----o---o-----|--o-----o-o-----|

Outro
C |x---------------|----------------|----------------|----------------|
H |----x---x---x---|x---x---x---x---|x---x---x---x---|x---x---x---x---|
S |--------o-------|--------o-------|--------o-------|--------o-----o-|
B |oooooooooooooooo|oooooooooooooooo|oooooooooooooooo|oooooooooooooooo|

H |x---x---x---x---|x---x---x---x---|x---x---x---x---|x---x---x---x---|
S |--------o-------|--------o-------|--------o-------|--------o-----o-|



[You must be registered and logged in to see this image.]


Ravensclaw
Administrator
The Pioneer All Things Disturbed Joke!
View user profile

13 Re: The Sickness Drum Tabs on Sat 23 Jan 2010, 18:11

Conker

avatar
The Animal
Sure no one cares but
Correct Down With The Sickness intro:

( Repeat 10 times)
MT/ o--o--o--o--o--o/
FT/ o-o-o-o-o-o-o-o-/
B/ ooo-o-ooo-o-ooo-/

Last Bar
MT/o--o--o---o
FT/o-o-o-o-o-o
B/ ooo-o-ooooo

View user profile

Sponsored content


View previous topic View next topic Back to top  Message [Page 1 of 1]

Permissions in this forum:
You cannot reply to topics in this forum

FacebookTwitterFacebookFacebook

 
  •  

Forumotion.com | © PunBB | Free forum support | Contact | Report an abuse | Free forum