The Sickness Guitar Tabs


You are not connected. Please login or register

View previous topic View next topic Go down  Message [Page 1 of 1]

1 The Sickness Guitar Tabs on Fri 06 Mar 2009, 15:53

CrowX

avatar
Administrator
Voices Guitar Tab

TUNING: tune your guitar down half a step and then drop d (Db,Ab,Db,Gb,Bb,Eb)
INTRO:

One guitar plays this clean while another plays with heavy distortion and
fades in and tremelo picks.

Eb|-----------------------|
Bb|-----------------------|
Gb|-----------------------|
Db|-11-----9--11-------9--|
Ab|-9------9--10-------9--|
Db|-9------9--9--------9--|

2ND INTRO:

Eb|------------------------------|-------------------------------|
Bb|------------------------------|-------------------------------|
Gb|------------------------------|-------------------------------|
Db|-7-9---7-9---7-9---7-9---/15--|-7-9---7-9---7-9---7-9---x-x-x-|
Ab|-7-9---7-9---7-9---7-9---/15--|-7-9---7-9---7-9---7-9---x-x-x-|
Db|-7-9---7-9---7-9---7-9---/15--|-7-9---7-9---7-9---7-9---x-x-x-|

VERSE:

Eb|---------------------------------|-------------------------------|
Bb|---------------------------------|-------------------------------|
Gb|---------------------------------|-------------------------------|
Db|---------------------------------|-------------------------------|
Ab|---------------------------------|-------------------------------|
Db|-7-9---7-9---7-9---7-9---3--3-3--|-7-9---7-9---7-9---7-9--/15-15-|

Eb|---------------------------------|----------------------------<7>|
Bb|---------------------------------|--------------------------<7>--|
Gb|---------------------------------|------------------------<7>----|
Db|---------------------------------|-------------------------------|
Ab|---------------------------------|-------------------------------|
Db|-7-9---7-9---7-9---7-9---3--3-3--|-7-9---7-9---7-9---7-9---------|

Next time through add the rest of the power chords

CHORUS: (i can't hear the rythm put on these chords)

Eb|------------------------------|
Bb|------------------------------|
Gb|------------------------------|
Db|-0------------7-9-------------|
Ab|-0------------7-9-------------|
Db|-0------------7-9-------------|

BRIDGE 1:

Eb|--------------------|--------------------|
Bb|--------------------|--------------------|
Gb|--------------------|-----------11-11-11-|
Db|-9--7--10--4--5--7--|-9--7--10--9--9--9--|
Ab|-9--7--10--4--5--7--|-9--7--10-----------|
Db|-9--7--10--4--5--7--|-9--7--10-----------|

BRIDGE 2:

Eb|--------------------------------------|------------------------------------|
Bb|--------------------------------------|------------------------------------|
Gb|--------------------------------------|------------------------------------|
Db|--------------------------------------|------------------------------------|
Ab|--------------------------------------|------------------------------------|
Db|-9---12-9---12-9---12-9---12-9--12-12-|-9---12-9---12-9---12-9---12-9---15-|

Play twice and then add the power chords for the next time
and stop early before the chorus.

Outro is the same as intro 2

View user profile

2 Re: The Sickness Guitar Tabs on Fri 06 Mar 2009, 16:01

CrowX

avatar
Administrator
THE GAME GUITAR TAB

TUNE DOWN 1/2 STEP

e|12--------13---------12--------------------15------------------------------|
B|--------------------------------15-----------------------------------------|
G|---------------------------------------------------------------------------|
D|---------------------------------------------------------------------------|
A|---------------------------------------------------------------------------|
E|---------------------------------------------------------------------------|
P.M.---| P.M.---| P.M. P.M.---| P.M.----|
e|---------------------------------------------------------------------------|
B|---------------------------------------------------------------------------|
G|4------------4-----------5-------7-/-9-------------------------------------|
D|2------------2-----------3-----------------------5-/-7---------------------|
A|2------------2-----------3-------5-/-7---------------------------3---------|
E|0---0-0-0-0-----0-0-0-0-----0-0---------0-0-0-0--3-/-5--0-0-0-0--1---------|
P.M.---| P.M.---| P.M. P.M.---| P.M.
e|---------------------------------------------------------------------------|
B|---------------------------------------------------------------------------|
G|4------------4-----------5-------7-/-9-------------------------------------|
D|2------------2-----------3-----------------------5-/-7---------------------|
A|2------------2-----------3-------5-/-7-----------------------8-------------|
E|0---0-0-0-0-----0-0-0-0-----0-0---------0-0-0-0--3-/-5--0-0--6-------------|

e|-----------------------------24-\------------------------------------------|
B|---------------------------------------------------------------------------|
G|------------------------21-------------------------------------------------|
D|---------------------------------------------------------------------------|
A|---------------------------------------------------------------------------|
E|0-0-0-----0----0----0-0-0----0-0-0----0------0---0-0-0---------------------|
P.M.---| P.M.---|
e|-------------------------------0-------------------------------------------|
B|-------------------------------0-------------------------------------------|
G|4-----------4------------------2-------------------------------------------|
D|2-----------2-----------3------3-------------------------------------------|
A|2-----------2-----------3------3-------------------------------------------|
E|0--0-0-0-0-----0-0-0-0--1------1-------------------------------------------|

e|-----12-----------------------12-----\----0--------------------------------|
B|-----15b----------------------15b----\----0------6-------------------------|
G|-------------------------------------------------8b------------------------|
D|---------------------------------------------------------------------------|
A|---------------------------------------------------------------------------|
E|0-----------1-----1-----0--------------------------------------------------|
P.M.---------------------|
e|---------------------------------------------------------------------------|
B|---------------------------------------------------------------------------|
G|---------------------------------------------------------------------------|
D|---------------------------------------------------------------------------|
A|---------------------------------2-2-2-------------------------------------|
E|0-0-0----0----0-----17--\--------0-0-0----0------0-------0-----------------|
P.M.--------------------|
e|---------------------------------------------------------------------------|
B|---------------------------------------------------------------------------|
G|---------------------------------------------------------------------------|
D|---------------------------------------------------------------------------|
A|-------------------------------2-2-2----2---2----2-2-2---------------------|
E|0-0-0------0-----0-----0-------0-0-0----0---0----0-0-0---------------------|



[You must be registered and logged in to see this link.]


CrowX
Administrator
View user profile

3 Re: The Sickness Guitar Tabs on Fri 06 Mar 2009, 16:02

CrowX

avatar
Administrator
STUPIFY GUITAR TAB

TUNING: tune your guitar down half a step and then drop d (Db,Ab,Db,Gb,Bb,Eb)


INTRO:

Gb|-----------------------------------------------------|
Db|-8--0--1-0---1--0-3-1-0-3--8--0--1-0--1-3-1-3-1-0----|
Ab|-8--0--1-0---1--0-3-1-0-3--8--0--1-0--1-3-1-3-1-0-3--|
Db|-8--0--1-0---1--0-3-1-0-3--8--0--1-0--1-3-1-------3--|

Gb|-----------------------------------------------------|
Db|-8--0--1-0---0-1-1-3-1-0-3--8--0--1-0--1---1---------|
Ab|-8--0--1-0---0-1-1-3-1-0-3--8--0--1-0--1-3-1-3-3-3-3-|
Db|-8--0--1-0---0-1-1-3-1-0-3--8--0--1-0----3---3-3-3-3-|

Gb|-----------------------------------------------------|
Db|-8--0--1-0---1--0-3-1-0-3--8--0--1-0--1-3-1-3-1-0----|
Ab|-8--0--1-0---1--0-3-1-0-3--8--0--1-0--1-3-1-3-1-0-3--|
Db|-8--0--1-0---1--0-3-1-0-3--8--0--1-0--1-3-1-------3--|

Gb|-----------------------------------------------------|
Db|-8--0--1-0---1--0-3-1-0-3--8--0--1-0--1-1-1-0-0--1---|
Ab|-8--0--1-0---1--0-3-1-0-3--8--0--1-0--1-1-1-0-0--1---|
Db|-8--0--1-0---1--0-3-1-0-3--8--0--1-0--1-1-1-0-0--1---|

1ST VERSE: (gtr 1 x7 Riff A)

Eb|-----------------6--8----------------------5----|
Bb|----------6-6-6-------------------------4-------|
Gb|---------------------------------2-2-2----------|
Db|-0--0--0----------------0--0--0-----------------|
Ab|-0--0--0----------------0--0--0-----------------|
Db|-0--0--0----------------0--0--0-----------------|

(gtr 2 x8 Riff B)

Eb|-10------------10-------------|
Bb|----11---10-------11---10-----|
Gb|------------------------------|

(gtr 1)

Eb|-----------------8----------------------5-5---5--|
Bb|----------6-6-6------------------4-4-4------3----|
Gb|-------------------------------------------------|
Db|-0--0--0----------------0--0--0------------------|
Ab|-0--0--0----------------0--0--0------------------|
Db|-0--0--0----------------0--0--0------------------|

CHORUS:

Gb|-----------------------------------------------------|
Db|-8--0--1-0-0-1--0-3-1-0-3--8--0--1-0--1-3-1---1-0----|
Ab|-8--0--1-0-0-1--0-3-1-0-3--8--0--1-0--1-3-1-3-1-0-3--|
Db|-8--0--1-0-0-1--0-3-1-0-3--8--0--1-0--1-3-1-------3--|

Gb|-----------------------------------------------------|
Db|-8--0--1-0--0-1-1-3-1-0-3--8--0--1-0--1---1----------|
Ab|-8--0--1-0--0-1-1-3-1-0-3--8--0--1-0--1-3-1-3-3-3-3--|
Db|-8--0--1-0--0-1-1-3-1-0-3--8--0--1-0----3---3-3-3-3--|

Gb|-----------------------------------------------------|
Db|-8--0--1-0-0-1--0-3-1-0-3--8--0--1-0--1-3-1-3-1-0----|
Ab|-8--0--1-0-0-1--0-3-1-0-3--8--0--1-0--1-3-1-3-1-0-3--|
Db|-8--0--1-0-0-1--0-3-1-0-3--8--0--1-0--1-3-1-------3--|

Gb|-----------------------------------------------------|
Db|-8--0--1-0--0-1-1-3-1-0-3--8--0--1-0---1-1-1-0-0-1---|
Ab|-8--0--1-0--0-1-1-3-1-0-3--8--0--1-0---1-1-1-0-0-1---|
Db|-8--0--1-0--0-1-1-3-1-0-3--8--0--1-0---1-1-1-0-0-1---|

CHORUS TAG: (x4)

Gb|-----------------------------|
Db|-0--0--0---------------------|
Ab|-0--0--0---------------------|
Db|-0--0--0----0-0-0-0-0--0-----|


2ND VERSE: (w/ Riff A x4, Riff B x16)

x2 let ring

Gb|-----------------------------------------------------|
Db|-0------------------------0--------------------------|
Ab|-0------------------------0--------------------------|
Db|-0------------------------0--------------------------|

Gb|------------------------------|
Db|------------------------------|
Ab|-1----0---------1----0--------| x3
Db|-0----0---------0----0--------|

Eb|---------------------5--5-----|
Bb|--------------4-4-4--4--4-----|
Gb|---------------------2--2-----|
Db|------------------------------|
Ab|-1----0---1-------------------|
Db|-0----0---0-------------------|

CHORUS:

CHORUS: (w/ sitar effect x7)

Eb|-----------------------|
Bb|-----3-------4-----4---|
Gb|-----------------------|
Db|-0--------0------0-----|

Eb|-----------------------|
Bb|-----3-----------------|
Gb|-----------------------|
Db|-0--------0------------|

BRIDGE: (w/ wah)

Gb|-----------------------------------------------------|
Db|-----3--------3-----------------3--------3---1-0-1-0-|
Ab|-0---3----0---3---0---1-1--0----3----0---3---1-0-1-0-|
Db|-0--------0-------0---1-1--0---------0---------------|

double time feel x2

Gb|-----------------------------------------------------|
Db|-8--0--1-0--1-1-1-0-0-0-0--1--0--0-0--1-1-1-0-0-0-0--|
Ab|-8--0--1-0--1-1-1-0-0-0-0--1--0--0-0--1-1-1-0-0-0-0--|
Db|-8--0--1-0--1-1-1-0-0-0-0--1--0--0-0--1-1-1-0-0-0-0--|

CHORUS:

play double time feel x 3 1/2 then play this

Gb|--------------------------------|
Db|-1--0-0-0-0-1--0-0-0-0-1--0-0---|
Ab|-1--0-0-0-0-1--0-0-0-0-1--0-0---|
Db|-1--0-0-0-0-1--0-0-0-0-1--0-0---|

OUTRO: (x4)

Gb|----------------------------------|
Db|-1-0--1-0--1-0--1-3-1-3-1-0-------|
Ab|-1-0--1-0--1-0--1-3-1-3-1-0-3-----|
Db|-1-0--1-0--1-0--1-3-1-----0-3-----|

Gb|--------------------------------|
Db|-1--0--1-0--1-3-1-3-1-0-3-------|
Ab|-1--0--1-0--1-3-1-3-1-0-3-------|
Db|-1--0--1-0--1-3-1-----0-3-------|

Fig 2

Gb|-------------------------------|
Db|-1-0--1-0--1-0--1-3-0-1-3-1-2--|
Ab|-1-0--1-0--1-0--1-3-0-1-3-1-2--| x3
Db|-1-0--1-0--1-0--1-3-0-1-3-1-2--|

Gb|--------------------------------|
Db|-1-0--1-0--1-0--1-3-0-1-3-0-1---|
Ab|-1-0--1-0--1-0--1-3-0-1-3-0-1---|
Db|-1-0--1-0--1-0--1-3-0-1-3-0-1---|

Gb|--------------------------------|
Db|-1-0--1-0--1-0--1-3-0-1-0-0-0---|
Ab|-1-0--1-0--1-0--1-3-0-1-0-0-0---|
Db|-1-0--1-0--1-0--1-3-0-1-0-0-0---|

fig 2 x 2

Gb|-----------------------|
Db|-1-0------1-0----------|
Ab|-1-0------1-0----------|
Db|-1-0------1-0----------|



[You must be registered and logged in to see this link.]


CrowX
Administrator
View user profile

4 Re: The Sickness Guitar Tabs on Fri 06 Mar 2009, 16:03

CrowX

avatar
Administrator
DOWN WITH THE SICKNESS GUITAR TAB

Drop D tuning.

e|----------------------------------|
B|----------------------------------|
G|----------------------------------|
D|----------------------------------| x3
A|-6-9-6-7-6---6-9-6-7-6---6-9-6-7--|
D|----------------------------------|

e|------------------------|
B|------------------------|
G|------------------------|
D|------------------------|
A|-6-9-6-7-6---6-9-6-7-6--|
D|------------------------|

Dodgy vocals that sounds cool!

e|----------------------------------|
B|----------------------------------|
G|----------------------------------|
D|-1-4-1-2-1---1-4-1-2-1---1-4-1-2--| x3
A|-1-4-1-2-1---1-4-1-2-1---1-4-1-2--|
D|-1-4-1-2-1---1-4-1-2-1---1-4-1-2--|

e|----------------------------------|
B|----------------------------------|
G|----------------------------------|
D|-1-4-1-2-1---1-4-1-2-1---1-2-2-2--|
A|-1-4-1-2-1---1-4-1-2-1---1-2-2-2--|
D|-1-4-1-2-1---1-4-1-2-1---1-2-2-2--|

e|----------------------------------|
B|----------------------------------|
G|----------------------------------|
D|-1-4-1-2-1---1-4-1-2-1---1-4-1-2--| x3
A|-1-4-1-2-1---1-4-1-2-1---1-4-1-2--|
D|-1-4-1-2-1---1-4-1-2-1---1-4-1-2--|

e|----------------------------------|
B|----------------------------------|
G|----------------------------------|
D|-1-4-1-2-1---1-4-2-2-2-2-2-2-2-2--| x3
A|-1-4-1-2-1---1-4-2-2-2-2-2-2-2-2--|
D|-1-4-1-2-1---1-4-2-2-2-2-2-2-2-2--|
PM.............
Verse:

e|----------------------------------|
B|----------------------------------|
G|----------------------------------|
D|-1-1-1-1-1---1-1-1-1-1---1-1-1-1--| x3
A|-1-1-1-1-1---1-1-1-1-1---1-1-1-1--|
D|-1-1-1-1-1---1-1-1-1-1---1-1-1-1--|
PM....... ......... .......

e|-----------------------------------|
B|-----------------------------------|
G|--------------------------------4--|
D|-1-1-1-1-1---1-1-1-1-1---2-2--4----|
A|-1-1-1-1-1---1-1-1-1-1---2-2-------|
D|-1-1-1-1-1---1-1-1-1-1---2-2-------|

Pre-chorus:

e|----------------------------------|
B|----------------------------------|
G|----------------------------------|
D|-1-4-1-2-1---1-1-1-1-1---1-1-1-1--| x3
A|-1-4-1-2-1---1-1-1-1-1---1-1-1-1--|
D|-1-4-1-2-1---1-1-1-1-1---1-1-1-1--|

e|-----------------------------------|
B|-----------------------------------|
G|--------------------------------4--|
D|-1-4-1-2-1---1-1-1-1-1---1-2--4----|
A|-1-4-1-2-1---1-1-1-1-1---1-2-------|
D|-1-4-1-2-1---1-1-1-1-1---1-2-------|

Chorus:

e|------------------------------------|-----------------------------------|
B|----------------4--4----------------|----------------4------------------|
G|------------------------------------|-------------------4---------------|
D|------------------------------------|-----------------------------------|
A|-1----1-2-1------------1-----1-2-1--|-1----1-2-1-----------1-----1-2-1--|
D|-1----1-2-1------------1-----1-2-1--|-1----1-2-1-----------1-----1-2-1--|

e|------------------------------------|-----------------------------------|
B|----------------4--4----------------|----------------4------------------|
G|------------------------------------|-------------------4---------------|
D|------------------------------------|-----------------------------------|
A|-1----1-2-1------------1-----1-2-1--|-1----1-2-1-----------1------------|
D|-1----1-2-1------------1-----1-2-1--|-1----1-2-1-----------1---/18~~~~--|

after u repeat this let the last note ring out like this:

D|--------------|------------------------------|
A|-1------------|------------------------------|
D|-1------------|-----------/16-\(long slide)--|

Then onto the 2nd chorus dont let the note ring out; instead go into the Bridge here:

e|-------------------------------------|----------------------------------|
B|-------------------------------------|----------------------------------|
G|-------------------------------------|----------------------------------|
D|-------------------------------------|----------------------------------|
A|---------------1/2--------3----3/6~~~|~~~~~~--X-X-2/3------2----X-X-----|
D|-3~~~~--X-X--------------------------|-------------------------------1--|

e|-------------------------------------|----------------------------------|
B|-------------------------------------|----------------------------------|
G|-------------------------------------|-------------5-------4------------|
D|-------------------------------------|-------------5-------4----X-X--1--|
A|---------------1/2---------3----3/6~~|~~~~~~--X-X--3-------2----X-X--1--|
D|-3~~~~~--X-X-------------------------|-------------------------------1--|

e|-----------------------------------------|----------------------------|
B|-----------------------------------------|----------------------------|
G|---------------4---------5----------5----|---------------4---------5--|
D|-3-------------4---------5----------3----|-3-------------4---------5--| x8
A|-3--------X-X--2---------3-----X-X-------|-3--------X-X--2---------3--|
D|-3--------X-X------------------X-X-------|-3--------X-X---------------|

Interlude:

e|-------------------------------------|
B|-------------------------------------|
G|-------------------------------------|
D|-------------------------------------| x3
A|-8-11-8-9-8---8-11-8-9-8---8-11-8-9--|
D|-------------------------------------|

e|------------------------|
B|------------------------|
G|------------------------|
D|------------------------|
A|-8-11-8-9-8---8-11-8-9--|
D|------------------------|

Outro:

e|----------------------------------|
B|----------------------------------|
G|----------------------------------|
D|-3-6-3-4-3---3-6-3-4-3---3-6-3-4--|
A|-3-6-3-4-3---3-6-3-4-3---3-6-3-4--| repeat this riff until the end
D|-3-6-3-4-3---3-6-3-4-3---3-6-3-4--|



[You must be registered and logged in to see this link.]


CrowX
Administrator
View user profile

5 Re: The Sickness Guitar Tabs on Fri 06 Mar 2009, 16:04

CrowX

avatar
Administrator
VIOLENCE FETISH GUITAR TAB

Tuning: 1/2 Step Down, Drop D
<> - harmonics
^ - bend 1/2 step

INTRO:
|---|
|---|
|---|
|-0-|
|-0-|
|-0-|

INTRO B:
|----------------16-|
|-15-18-15-17-15----|
|-------------------|
|-------------------|
|-------------------|
|-------------------|

CHORUS: (not sure about harmonics on this part)
|---------------------------------------------------------------|
|---------------------17^-17-17^---------<2.5>-------17^-17-17^-|
|---------<2.5>-------------------------------------------------|
|0-1-0-0-1-----0-1-0-0----------0-1-0-0-1-----0-1-0-0-----------|
|0-1-0-0-1-----0-1-0-0----------0-1-0-0-1-----0-1-0-0-----------|
|0-1-0-0-1-----0-1-0-0----------0-1-0-0-1-----0-1-0-0-----------|

VERSE:
|--------------------------------------|
|--------------------------------------|
|--------------------------------------|
|-0----0-13-00-0-01-0--0-13-00-0-01000-|
|-0----0-13-00-0-01-0--0-13-00-0-01000-|
|-0----0-13-00-0-01-0--0-13-00-0-01000-|
PM . .. . . . . .. . .....

BRIDGE:
|---0---0---0---0---0---0-|
|-------------------------|
|-------------------------|
|-------------------------|
|-3---2---2---8---7---7---|
|-3---2---2---8---7---7---|

INTERLUDE:
|-----------------|
|-----------------|
|------7---8-9-10-|
|------7---8-9-10-|
|-0-0--5-0-6-7--8-|
|-0-0----0--------|
PM. . .

INTERLUDE 2:
|--------------------|
|--------------------|
|--------------------|
|-0-0--12-0-13-14-15-|
|-0-0--12-0-13-14-15-|
|-0-0--12-0-13-14-15-|

OUTRO:
|---------------------------|
|---------------------------|
|---------------------------|
|-0-1-0-0-1-0--0-1-0-0-0000-|
|-0-1-0-0-1-0--0-1-0-0-0000-|
|-0-1-0-0-1-0--0-1-0-0-0000-|
PM



[You must be registered and logged in to see this link.]


CrowX
Administrator
View user profile

6 Re: The Sickness Guitar Tabs on Fri 06 Mar 2009, 16:05

CrowX

avatar
Administrator
FEAR GUITAR TAB

Tuning: 1/2 Step Down, Drop D

INTRO:
|----19-18---------15--17-|
|-17--------17-19---------|
|-------------------------|
|-------------------------|
|-------------------------|
|-------------------------|

MAIN RIFF:
|--------------|
|--------------|
|--------------|
|-2-0-2--3-2-0-|
|-2-0-2--3-2-0-|
|-2-0-2--3-2-0-|

FILL:
|-----|
|-----|
|-----|
|-5-2-|
|-5-2-|
|-5-2-|

VERSE:
|--------------|
|--------------|
|--------------|
|-2-0-2--3-2-0-|
|-2-0-2--3-2-0-|
|-2-0-2--3-2-0-|
PM. . . . .

BRIDGE:
|-----------------------------------------|
|-----------------------------------------|
|-----------------------------------------|
|-2-5-2-2--2-8-2-2--25252-5-22--2222228-8-|
|-2-5-2-2--2-8-2-2--25252-5-22--2222228-8-|
|-2-5-2-2--2-8-2-2--25252-5-22--2222228-8-|

CHORUS:
|-------------------------------|
|-------------------------------|
|-------------------------------|
|-/14-0-3-5-5-10--/14-0-3-5-5-3-|
|-/14-0-3-5-3--8--/14-0-3-5-5-3-|
|-/14-0-3-5-------/14-0-3-5-5-3-|

INTERLUDE:
|----------------------------|
|----------------------------|
|----3----3----3----3--------|
|-22---22---22---22---2-2320-|
|-22---22---22---22---2-2320-|
|-22---22---22---22---2-2320-|

FILL 2:
|---------------|
|---------------|
|---------------|
|---------------|
|---------------|
|-2-2320-2-2320-|



[You must be registered and logged in to see this link.]


CrowX
Administrator
View user profile

7 Re: The Sickness Guitar Tabs on Fri 06 Mar 2009, 16:05

CrowX

avatar
Administrator
NUMB GUITAR TAB


intro
|-----------------------------------|x8 but on the last time dont play the parts in [ ]
|-----------------------------[3--3]|
|-----------------------------[2--2]|
|0--3--3--3---3-----0--0--0---[0--0]|
|0--3--3--3---3-----0--0--0---[0--0]|listen carefully this part is hard to get with out
|0--3--3--3---3-----0--0--0---[0--0]|listening to the song


verse

|-----------------| |---------------------------|
|-----------------| |---------------------------|
|-----------------| |---------------------------|
|----------------0| |0--------------------------|
|-------------3--0|x2 then|0----------{5}bend-----3--0|
|-0--3--3--3--3--0| |0----------{5}1/2 step-3--0|
pm . . . pm .

pre-chorus
|--------------------------|
|--------------------------|
|--------------------------|x 3
|--------------------------|
|-6--0------3----0---------|
|-6--0--0-0-3----0--{5}-3-0|
pm . . .
|--------------------------|
|--------------------------|
|--------------------------|
|--------------------------|
|-6--0------3----0----3----|
|-6--0--0-0-3----0----3----|
pm . .
|---------------------------------------------------------------------| |-------|
|---------------------------------------------------------------------| |-------|
|---------------------------------------------------------------------|x 2 but the|-------|
|---------------------------------------------------------------------|last time |-------|
|-2-2-2----x-2-2-2-3-3-3---x-5-5-5-2-2-2------x-2-2-2-3-3-3---x-5[5-5]|replace [] |-------|
|-2-2-2----x-2-2-2-2-2-2---x-2-2-2-2-2-2------x-2-2-2-2-2-2---x-2[2-2]|with this |-10\sld|

bridge w/wah
|-------------------------|x2
|-------------------------|
|-------------------------|
|-------------------------|
|-----------0-1-0---------|
|--0-----0-----------3-x-1|

chorus
|-------------------------------------------------|
|-------------------------------------------------|
|-------------------------------------------------|
|-------------------------------------------------|
|-2---2----2---2-3---3------2---2---2---2-3---3--3|
|---2--------2-----2----------2-------2-----2----3|

|-------------------------------------------------------|
|-------------------------------------------------------|
|-------------------------------------------------------|
|-------------------------------------------------------|
|-2---2----2---2-3---3------2---2---2---2-3---3-{5}--3-0|
|---2--------2-----2----------2-------2-----2---{5}--3-0|
pm .

outro
|---------------------------------------|
|---------------------------------------|
|---------------------------------------|
|---------------------------------------|
|---------------------------------------|x3
|-5--3-0-5-3-0-5---3---0-5-3-0-5-3-5-3--|

|-------------------------------------------------|
|-------------------------------------------------|
|-------------------------------------------------|
|-------------------------------------------------|
|-------------------------------------------------|
|-5--3--0--5--3--0--5---3---0--5--3--0--5--3--5--3|

|-----------------------------------------------------------------------------------------------|
|-----------------------------------------------------------------------------------------------|
|-----------------------------------------------------------------------------------------------|
|-----------------------------------------------------------------------------------------------|
|-----------------------------------------------------------------------------------------------|
|5-3-0-5-3-0-5-3-0-5-3-0-5-3-5-3-5-3-0-5-3-0-5-3-0-5-3-0-5-3-5-3-5-3-0-5-3-0-5-3-0-5-3-0-5-3-5-3|
pm . . . . . . . . . . . . . . . . . . . . . . . . . . . . . . . . . . . . . . . . . . . . . . .

|--------------------------------------------------|
|--------------------------------------------------|
|--------------------------------------------------|
|--------------------------------------------------|
|-5--3--0--5--3--0--5--3--0--5--3--0--5--3--5--3--0|
|-5--3--0--5--3--0--5--3--0--5--3--0--5--3--5--3--0|



[You must be registered and logged in to see this link.]


CrowX
Administrator
View user profile

8 Re: The Sickness Guitar Tabs on Fri 06 Mar 2009, 16:06

CrowX

avatar
Administrator
WANT GUITAR TAB

Tuning: 1/2 Step Down, Drop D
<> - harmonics
^ - bend 1 step

CHORUS:
|----------------------------------------------------|
|----------------------------------------------------|
|----------------------------------------------------|
|-2--2-2-2-2--2-2-2-0-2-3--2--2-2-2-2--2-222-2-2-222-|
|-2--2-2-2-2--2-2-2-0-2-3--2--2-2-2-2--2-222-2-2-222-|
|-2--2-2-2-2--2-2-2-0-2-3--2--2-2-2-2--2-222-2-2-222-|
PM . . . . . . . . . . ... . . ...

VERSE
|----------5-5^------------|play|----------5-5^--------------<5>-|
|--------------------------|3X |-------------------------<5>----|
|--------------------------|then|--------------------------------|
|--------------------------| |--------------------------------|
|------------------------5-| |------------------------5-------|
|-2-2-2-0-0----0-2-2-2-0---| |-2-2-2-0-0----0-2-2-2-0---------|
PM. . . . . . . . . . . . . . . . . . . .

FILL:
|---------------|
|---------------|
|---------------|
|---------------|
|-5-7-7-5-7-7-7-|
|---------------|

BRIDGE:
|------------------| |--------------------|
|------------------|play|--------------------|
|--------<5>---<5>-|3X |---------XX-<5>-<5>-|
|-2-2--2----<5>----|then|-2-2--2--XX----3----|
|-2-2--2-----------| |-2-2--2--------3----|
|-2-2--2-----------| |-2-2--2--------3----|

INTERLUDE:
|-------------------------------------|
|-------------------------------------|
|-------------------------------------|
|-------------------------------------|
|-10------------------------10-9--/17-|
|-10-9--5-4-4-5-4-2--2-4-5--10-9--/17-|

INTERLUDE 2:
|-------------------------------------------22^-|
|-----------------------------------------------|
|-----------------------------------------------|
|-2--2-2-2--2-222-0-2-3--2-2--2-2--2-2--2-2-----|
|-2--2-2-2--2-222-0-2-3--2-2--2-2--2-2--2-2-----|
|-2--2-2-2--2-222-0-2-3--2-2--2-2--2-2--2-2-----|
PM . . . ...

FILL 2:
|---------------------------|
|---------------------------|
|---------------------------|
|-2-2--2-2--2-2--2-2--2-2-2-|
|-2-2--2-2--2-2--2-2--2-2-2-|
|-2-2--2-2--2-2--2-2--2-2-2-|
PM . . .

INTERLUDE 3:
|-------------------------------|
|-------------------------------|
|-------------------------------|
|-2-----------2-----------0-2-3-|
|-2-----------2-----------0-2-3-|
|-2-2-2-2-2-2-2-2-2-2-2-2-0-2-3-|
PM . . . . . . . . . .

OUTRO:
|---------------------|
|---------------------|
|---------------------|
|-2-2--2-2--2-2-2-2-2-|
|-2-2--2-2--2-2-2-2-2-|
|-2-2--2-2--2-2-2-2-2-|



[You must be registered and logged in to see this link.]


CrowX
Administrator
View user profile

9 Re: The Sickness Guitar Tabs on Fri 06 Mar 2009, 16:07

CrowX

avatar
Administrator
CONFLICT GUITAR TAB

TUNE DOWN 1/2 STEP

e|---------------------------------------------------------------------------|
B|---------------------------------------------------------------------------|
G|---------------------------------------------------------------------------|
D|---------------------------------------------------------------------------|
A|------------------------------------4--4-----------------------------------|
E|3--2--0--3--2--0--3--2--0--3--2--0--2--2-----------------------------------|
|-------------------P.M.-------------------|
e|---------------------------------------------------------------------------|
B|---------------------------------------------------------------------------|
G|---------------------------------------------------------------------------|
D|4----x--x--5------4--------------------------------------------------------|
A|3----x--x--3------2----2---------------------------------------------------|
E|-----------------------0---0--0--0--0--0--0--0--0--0--0--0--0--0--0--0-----|
|-------------------P.M.-------------------|
e|---------------------------------------------------------------------------|
B|---------------------------------------------------------------------------|
G|---------------------------------------------------------------------------|
D|4----4--4--5------4--------------------------------------------------------|
A|3----3--3--3------2----2---------------------------------------------------|
E|-----------------------0---0--0--0--0--0--0--0--0--0--0--0--0--0--0--0-----|

e|---------------------------------------------------------------------------|
B|---------------------------------------------------------------------------|
G|---------------------------------------------------------------------------|
D|5---7---7---7---7-7----7---7--7--7-----------------------------------------|
A|3---5---5---5---5-5----6---6--6--6-----------------------------------------|
E|---------------------------------------11-\--------------------------------|
|---P.M.--| |---P.M.--| |---P.M.--| |---P.M.--|
e|---------------------------------------------------------------------------|
B|---------------------------------------------------------------------------|
G|---------------------------------------------------------------------------|
D|------------2----------------3----------------4----------------5-----------|
A|------------2----------------3----------------4----------------5-----------|
E|0--0--0--0--0----0--0--0--0--1----0--0--0--0--2----0--0--0--0--3-----------|
|---------------------P.M.---------------------|
e|---------------------------------------------------------------------------|
B|---------------------------------------------------------------------------|
G|---------------------------------------------------------------------------|
D|---------------------------------------------------------------------------|
A|------------------------------------------------5-5-5-5-5-5-5-5------------|
E|0-0-0-0-0-0-0-0-1-1-1-1-1-1-1-1-2-2-2-2-2-2-2-2-3-3-3-3-3-3-3-3------------|

e|---------------------------------------------------------------------------|
B|-----------------------------------------0-------------0-------14fdbk------|
G|-----------------------------------------0-------------0-------------------|
D|---------------------------------------------------------------------------|
A|2------4/5--5--5/6--6--4--5--5--6------------------------------------------|
E|0------2/3--3--3/4--4--2--3--3--4--0---------------------------------------|

e|------14fdbk----14b------18fdbk-------14fdbk------14fdbk------14fdbk-------|
B|15-------------------------------------------------------------------------|
G|---------------------------------------------------------------------------|
D|---------------------------------------------------------------------------|
A|---------------------------------------------------------------------------|
E|---------------------------------------------------------------------------|



[You must be registered and logged in to see this link.]


CrowX
Administrator
View user profile

10 Re: The Sickness Guitar Tabs on Fri 06 Mar 2009, 16:07

CrowX

avatar
Administrator
SHOUT 2000 GUITAR TAB

Tuning: 1/2 Step Down, Drop D

CHORUS:
|--------------------------------------------------------------|
|--------------------------------------------------------------|
|--------------------------------------------------------------|
|-7--------------7--------------3--------------3---------------|
|-7-7777-77-77-777-7777-77-77-773-3333-33-33-333-3333-33-33-33-|
|-7-7777-77-77-777-7777-77-77-773-3333-33-33-333-3333-33-33-33-|
PM .... .. .. .. .... .. .. .. .... .. .. .. .... .. .. ..

|--------------------------------------------------------------|
|--------------------------------------------------------------|
|--------------------------------------------------------------|
|-------------------------------7--------------7---------------|
|-00-00-00-00-000-00-00-00-00-007-7777-77-77-777-7777-77-77-77-|
|-00-00-00-00-000-00-00-00-00-007-7777-77-77-777-7777-77-77-77-|
PM.. .. .. .. ... .. .. .. .. .. .... .. .. .. .... .. .. ..

VERSE:
|---------------------------------------|
|---------------------------------------|
|---------------------------------------|
|---------------------------------------|
|-10--9--12--9-0000-0000-0XX0000-0000-0-|
|-10hold-------0000-0000-0XX0000-0000-0-|

INTERLUDE:
|------------------|
|------------------|
|------------------|
|------------------|
|-7-5-/10-7--5-/10-|
|-7-5-/10-7--5-/10-|

SOLO:
|----------------------------20-------17---15---17--17-|
|-17-20----17----------20-17----20--17---17---17--17---|
|-------19----17-19-17---------------------------------|
|------------------------------------------------------|
|------------------------------------------------------|
|------------------------------------------------------|

SOLO BACKGROUND:
|-------|
|-------|
|-------|
|-7---7-|
|-7---7-|
|-7---7-|

BRIDGE:
|---------5\--------------------------------------------|
|------------------------------------5------------------|
|--------------------------------------2----------------|
|-2p0-2--------0-0--0h2------2p0-2--------0-0--0h2------|
|-------0-----3----3---3-0-3-------0-----3----3---3-0-3-|
|-------------------------------------------------------|

CHORUS 2:
|--------------------------------------------------------------------|
|--------------------------------------------------------------------|
|--------------------------------------------------------------------|
|-7------5-7-5-7-5-7------5-7-5-7-5-3------5-7-5-7-5-3------5-7-5-7-5|
|-7-7777-5-7-5-7-5-7-7777-5-7-5-7-5-3-3333-5-7-5-7-5-3-3333-5-7-5-7-5|
|-7-7777-5-7-5-7-5-7-7777-5-7-5-7-5-3-3333-5-7-5-7-5-3-3333-5-7-5-7-5|
PM .... .... .... ....

|--------------------------------------------------------------------|
|--------------------------------------------------------------------|
|--------------------------------------------------------------------|
|-0------5-7-5-7-5-0------5-7-5-7-5-7------5-7-5-7-5-7------5-7-5-7-5|
|-0-0000-5-7-5-7-5-0-0000-5-7-5-7-5-7-7777-5-7-5-7-5-7-7777-5-7-5-7-5|
|-0-0000-5-7-5-7-5-0-0000-5-7-5-7-5-7-7777-5-7-5-7-5-7-7777-5-7-5-7-5|
PM .... .... .... ....



[You must be registered and logged in to see this link.]


CrowX
Administrator
View user profile

11 Re: The Sickness Guitar Tabs on Fri 06 Mar 2009, 16:08

CrowX

avatar
Administrator
DROPPIN' PLATES GUITAR TAB

Tuning: 1/2 Step Down, Drop D

CHORUS:
|-----------------------|
|-----------------------|
|-----------------------|
|-0--------1-1--------7-|
|-0--------1-1--------7-|
|-0-0-0000-1-1-0-000007-|
PM . .... . .....

FILL:
|-8-8-8-8-8-8-8-8-|
|-8-8-8-8-8-8-8-8-|
|-----------------|
|-----------------|
|-----------------|
|-----------------|

VERSE:
|---------------------------------|
|---------------------------------|
|---------------------------------|
|-13-12--10-13-12--13-12--5--3/10-|
|-13-12--10-13-12--13-12--5--3/10-|
|-13-12--10-13-12--13-12--5--3/10-|

BRIDGE:
|--------------------------------------|
|--------------------------------------|
|--------------------------------------|
|-1-0-----6-3323211--1-0-----6-1135531-|
|-1-0-6-5-6-3323211--1-0-6-5-6-1135531-|
|-1-0-----6-3323211--1-0-----6-1135531-|
PM ....... .......

INTERLUDE:
|-------------------------|
|-------------------------|
|-------------------------|
|-------------------------|
|-------------------------|
|-0-1-0-1-0-1-0-000-0-000-|

INTERLUDE 2:
|-----------------|
|-----------------|
|-----------------|
|-0-1-0-1-0-1-0-0-|
|-0-1-0-1-0-1-0-0-|
|-0-1-0-1-0-1-0-0-|



[You must be registered and logged in to see this link.]


CrowX
Administrator
View user profile

12 Re: The Sickness Guitar Tabs on Fri 06 Mar 2009, 16:09

CrowX

avatar
Administrator
MEANING OF LIFE GUITAR TAB


play this 3 times
intro
|------|
|------|
|------|
|----2-|
|-2--2-|
|-0--0-|
pm .

/////////////////////

|----------|--------------------|---------------------------------------------------|
|----------|--------------------|---------------------------------------------------|
|----------|--------------------|---------------------------------------------------|
|----2-----|--------------------|---------------------------------------------------|
|-2--2-----|--------x\\x\\------|-3-2-----------------------------------------5----7|
|-0--0-----|-0------x\\x\\------|-1-0-0-0--0-0-0-0---0-0-0--0--0--0--0--0-0-0-3----5|
pm . pick slide . . . . . . . . . . . . . . .

|---------------------------------------------|
|---------------------------------------------|
|---------------------------------------------|
|---------------------------------------------|
|-3-2--------------------------3--2---3--5--6-| repeat through verse
|-1-0--0--0--0-0-0-0----0-0-0--1--0-0-1--3--4-|
pm . . . . . . . .

|---------------------------------------------| |----------------------------------------|
|---------------------------------------------| |----------------------------------------|
|---------------------------------------------| |----------------------------------------|
|---------------------------------------------|x2|----------------------------------------|
|---------------------------------------------| |-2--3--2--3--2---2--3--2--3--2---2--3--4|
|-0--1--0--1--0---0--1--0--1--0---0--1--3~----| |-0--1--0--1--0---0--1--0--1--0---0--1--3|x2
trill the 3's
bridge
|---------------------------------------------------------------------|
|---------------------------------------------------------------------|
|---------------------------------------------------------------------|
|-2---let ring with feedback-2--2---2--2-----------2----2--2---2--2--3|
|-2--------------------------2--2---2--2-----------2----2--2---2--2--3|
|-0--------------------------0--0---0--0-----0--0--0----0--0---0--0--1| x8
pm . .

|---------------------------------------------------------|
|---------------------------------------------------------|
|---------------------------------------------------------|
|---------------------------------------------------------|
|3-2------------------------------------------------------|
|1-0--0--0--0-0-0-0----0-0-0--0--0--0--0--0-0-0-0----0-0-0|x3
pm . . . . . . . . . . . . . . . . . . . .

|---------------------------------------------------------|
|---------------------------------------------------------|
|---------------------------------------------------------|
|---------------------------------------------------------|
|3-2--------------------------3--2-----3-----5------6-----|
|1-0--0--0--0-0-0-0----0-0-0--1--0--0--1-----3------4-----|
pm . . . . . . . . .



[You must be registered and logged in to see this link.]


CrowX
Administrator
View user profile

Sponsored content


View previous topic View next topic Back to top  Message [Page 1 of 1]

Permissions in this forum:
You cannot reply to topics in this forum

FacebookTwitterFacebookFacebook

 
  •  

Forumotion.com | © PunBB | Free forum support | Contact | Report an abuse | Free forum